Disturbed - Loading the weapon

Track 01 from Music as a weapon II.

This song is fairly easy to play, and it feels good. As usual, I'm not 100% on everything,
But it works for me, so deal with it!

Tabbed by Mathias Stefansson ([email protected])


Tune down to c#

Intro riff:	X4
|-------------------------------------------------------------------------|
|-------------------------------------------------------------------------|
|----5---2------4---2------2---5---2------4---2---------5---2------4---2--|
|------2----2-3---3------3-------2----2-3---3----3--------2----2-3---3----|
|--0-------------------------0------------------------0-------------------|
|--------------------------------------------------3----------------------|


|-------------------------------------|
|-------------------------------------|
|----2-3------------------------------|
|--3-----3---3------3---2------0---0--|
|----------1----1-----2----------0----|
|-----------------0--------0/3--------|


Power riff 1:
|-------------------------------|
|-------------------------------|
|--5-5-5-2-x-5-5-5-4-x-4-4-4-4--|
|--2-2-2-2-x-3-3-3-3-x-3-3-3-3--|
|--0-0-0-0-x-0-0-0-0-x-0-0-0-0--|
|-------------------------------|


Power riff 1 pt 2:
|-------------------------------|
|-------------------------------|
|--3-3-3-3-x-5-4-4-4-x-4-4-4-4--|
|--3-3-3-3-x-3-3-3-3-x-3-3-3-3--|
|--1-1-1-1-x-3-3-3-3-x-3-3-3-3--|
|-------------------------------|


Power riff 2:
|----------------------------------------------------------------------------|
|----------------------------------------------------------------------------|
|-----5-5-4-x-x----2-x-2-x-2-4-4-5-5-4-2----5-5-4-x-x----2-x-2-x-2-x-2-x-x-x-|
|--3--5-5-4-x-x-5--2-x-2-x-2-4-4-5-5-4-2-3--5-5-4-x-x-5--2-x-2-x-2-x-2-x-x-x-|
|--3--3-3-2-x-x-5--0-x-0-x-0-2-2-3-3-2-0-3--3-3-2-x-x-5--0-x-0-x-0-x-0-x-x-x-|
|--1------------3------------------------1------------3----------------------|


Power riff 3:
|----7--7--7--7-7---7--7--7--7-7----------------------|
|-----------------------------------------------------|
|--7--------------------------------------------------|
|--7--------------9--------------2--------------------|
|--5--------------9--------------2--------------------|
|-----------------7--------------0-repeat this chord--|


Текст, аккорды и табулатура для песни "Loading The Weapon", исполняет "Disturbed".
Используемые в песне аккорды можно найти в разделе Как брать аккорды. Аккорды для шестиструнной гитары. Другие песни можно найти на нашем сайте, воспользовавшись алфавитным указателем вверху страницы.


Слушать онлайн Loading The Weapon


DisturbedLoading The Weapon на Яндекс.Музыке


 
Ошибка в тексте? Выделите ошибку и нажмите Ctrl+Enter