Song:Liberate
Band:Disturbed
Tuning:Db Ab Db Gb Bb Eb

Alright guys,I took a very very very long time to tab this out with my new
stero(with treble extract) so I am 
damn near positive it is correct.Good luck!

Intro:
|-------------------------------------------------------------------------------------|
|-------------------------------------------------------------------------------------|
|-------------------------------------------------------------------------------------|
|-------------------------------------------------------------------------------------|(x2)
|-------------------------------------------------------------------------------------|
|-0/2-2-2-2-2---2-2-2--0/2-2-2-2---0/2-2-2-2-2---2-2-2---0/2-2-2----------------------|

|-------------------------------------------------------------------------------------|
|-------------------------------------------------------------------------------------|
|-------------------------------------------------------------------------------------|
|-------------------------------------------------------------------------------------|
|-0/2-2-2-2-2--2-2-2--0/2-2-2---0/2-2-2-2-2--2-2-2--0/2-2-2--0/2-2-2-2-2--2-2-2-------|
|-0/2-2-2-2-2--2-2-2--0/2-2-2---0/2-2-2-2-2--2-2-2--0/2-2-2--0/2-2-2-2-2--2-2-2-------|

|-------------------------------------------------------------------------------------|
|-------------------------------------------------------------------------------------|
|-------------------------------------------------------------------------------------|
|-------------------------------------------------------------------------------------|
|-0/2-2-2-2-2--2-2--------------------------------------------------------------------|
|-0/2-2-2-2-2--2-2--15---------------------------------------------------------------|

Verse:
|-------------------------------------------------------------------------------------|
|-------------------------------------------------------------------------------------|
|-------------------------------------------------------------------------------------|
|-------------------------------------------------------------------------------------|
|-0/2-2--0-2-2-2-2---0/2-2---2/3--3-3/8--8-8-8-8-8-8--0/2-2--0-2-2-2-2---0/2-2-2------|
|-0/2-2--0-2-2-2-2---0/2-2---2/3--3-3/8--8-8-8-8-8-8--0/2-2--0-2-2-2-2---0/2-2-2------|

|-------------------------------------------------------------------------------------|
|-------------------------------------------------------------------------------------|
|-------------------------------------------------------------------------------------|
|-------------------------------------------------------------------------------------|
|-0/2-2--0-2-2-2-2--0/2-2-2-2--0/2-2--0-2-2-2-2---0/2-2---2/3--3-3/8--8-8-8-8-8-8-----|
|-0/2-2--0-2-2-2-2--0/2-2-2-2--0/2-2--0-2-2-2-2---0/2-2---2/3--3-3/8--8-8-8-8-8-8-----|

|-------------------------------------------------------------------------------------|
|-------------------------------------------------------------------------------------|
|-------------------------------------------------------------------------------------|
|-------------------------------------------------------------------------------------|
|-0/2-2--0-2-2-2-2---0/2-2-2--0/2-2--0-2-2-2-2--0/2-2-2-2--0/2-2--0-2-2-2-2-----------|
|-0/2-2--0-2-2-2-2---0/2-2-2--0/2-2--0-2-2-2-2--0/2-2-2-2--0/2-2--0-2-2-2-2-----------|

|-------------------------------------------------------------------------------------|
|-------------------------------------------------------------------------------------|
|-------------------------------------------------------------------------------------|
|----------------0--------------------------------------------------------------------|
|-0/2-2-0-2-2-2--0--------------------------------------------------------------------|
|-0/2-2-0-2-2-2-----------------------------------------------------------------------|

Pre-Chorus
|-------------------------------------------------------------------------------------|
|-------------------------------------------------------------------------------------|
|-------------------------------------------------------------------------------------|
|-------------------------------------------------------------------------------------|
|-------------------------------------------------------------------------------------|
|-{2-2-2-2-2-2-2-2-2-2-2-2-2-2-2-2--1-1-1-1-1-1--9-9-9-9-9-9-9-9-9-9-10-10-10-10-10---|

|-------------------------------------------------------------------------------------|
|-------------------------------------------------------------------------------------|
|-------------------------------------------------------------------------------------|
|-------------------------------------------------------------------------------------|
|-------------------------------------------------------------------------------------|
|-10-10-10-10-10-10-10-10-10-10-10--5-5-5-5-5-5--9-9-9-9-9-9-9-9-9-9}-x2--------------|

|-------------------------------------------------------------------------------------|
|-------------------------------------------------------------------------------------|
|--2-2--2-x-x-2-2---------------------------------------------------------------------|
|--2-2--2-x-x-1-1---------------------------------------------------------------------|
|--0-0--0-x-x-0-0---------------------------------------------------------------------|
|-------------------15---------------------------------------------------------------|

Chorus
|-------------------------------------------------------------------------------------|
|-------------------------------------------------------------------------------------|
|-------------------------------------------------------------------------------------|
|-5-4-4----5-4-4---0--------0--0-0-4-4-4-4-4-4---------(then play the intro over)-----|
|-3-3-3----2-2-2------(x3)--0--0-0-2-2-2-2-2-2------5---------------------------------|
|-------0--2-2-2------------------------------------3---------------------------------|

|-------------------------------------------------------------------------------------|
|-------------------------------------------------------------------------------------|
|-------------------------------------------------------------------------------------|
|-------------------------------------------------------------------------------------|
|-0/2--2-2-2-2--2-2-2-x-x-x-x---------------------------------------------------------|
|-0/2--2-2-2-2--2-2-2-x-x-x-x---------------------------------------------------------|

Interlude (x3)
|-------------------------------------------------------------------------------------|
|-------------------------------------------------------------------------------------|
|-----------------2--------------------7-----------------2----------------------------|
|---------------3--------------------7-----------------3----------------------7-------|
|-2-2-2--x-x--2-------2-2-2--x-x---7------2-2-2--x-x-2--------2-2-2--x-x----7---7-----|
|-2-2-2--x-x----------2-2-2--x-x----------2-2-2--x-x----------2-2-2--x-x--------------|

|-------------------------------------------------------------------------------------|
|-------------------------------------------------------------------------------------|
|-----------------2--------------------7-----------------2----------------------------|
|---------------3----------------7---7-----------------3------------------7---7-------|
|-2-2-2--x-x--2-------2-2-2--x-x---7------2-2-2--x-x-2--------2-2-2--x-x----7---7-----|
|-2-2-2--x-x----------2-2-2--x-x----------2-2-2--x-x----------2-2-2--x-x--------------|

Chorus
|-------------------------------------------------------------------------------------|
|-------------------------------------------------------------------------------------|
|-------------------------------------------------------------------------------------|
|-5-4-4----5-4-4---0--------0--0-0-4-4-4-4-4-4---------(then play the intro over)-----|
|-3-3-3----2-2-2------(x3)--0--0-0-2-2-2-2-2-2------5---------------------------------|
|-------0--2-2-2------------------------------------3---------------------------------|

|-------------------------------------------------------------------------------------|
|-------------------------------------------------------------------------------------|
|-------------------------------------------------------------------------------------|
|-------------------------------------------------------------------------------------|
|-0/2--2-2-2-2--2-2-2-x-x-x-x---------------------------------------------------------|
|-0/2--2-2-2-2--2-2-2-x-x-x-x---------------------------------------------------------|

Outro:
|-------------------------------------------------------------------------------------|
|-------------------------------------------------------------------------------------|
|-------------------------------------------------------------------------------------|
|-------------------------------------------------------------------------------------|(x2)
|-------------------------------------------------------------------------------------|
|-0/2-2-2-2-2---2-2-2--0/2-2-2-2---0/2-2-2-2-2---2-2-2---0/2-2-2----------------------|

|-------------------------------------------------------------------------------------|
|-------------------------------------------------------------------------------------|
|-------------------------------------------------------------------------------------|
|-------------------------------------------------------------------------------------|
|-0/2-2-2-2-2--2-2-2--0/2-2-2---------------------------------------------------------|(x4)
|-0/2-2-2-2-2--2-2-2--0/2-2-2---------------------------------------------------------|


Текст, аккорды и табулатура для песни "Liberate", исполняет "Disturbed".
Используемые в песне аккорды можно найти в разделе Как брать аккорды. Аккорды для шестиструнной гитары. Другие песни можно найти на нашем сайте, воспользовавшись алфавитным указателем вверху страницы.


Слушать онлайн Liberate


DisturbedLiberate на Яндекс.Музыке


 
Ошибка в тексте? Выделите ошибку и нажмите Ctrl+Enter