Liberate-Disturbed
Believe

Drop Db:
Db Ab Db Gb Bb Eb

< > = harmonics

Intro: w/ some effect ?

e-----------------------------------------------
b-----------------------------------------------
g-----------------------------------------------
d-2----2----2--2--2--2--1--1--1--9--9--9--9--9--
a-----------------------------------------------
d-----------------------------------------------

x2
e--------------------------------------------------------------
b--------------------------------------------------------------
g--------------------------------------------------------------
d--------------------------------------------------------------
a--------------------------------------------------------------
d-0h2--2-2-2-2----2-2-2-0h2-2-2--0h2--2-2-2-2----2-2-2-0h2-2-2-

e--------------------------------------------------------------
b--------------------------------------------------------------
g--------------------------------------------------------------
d--------------------------------------------------------------
a-0h2--2-2-2-2----2-2-2-0h2-2-2--0h2--2-2-2-2----2-2-2-0h2-2-2-
d-0h2--2-2-2-2----2-2-2-0h2-2-2--0h2--2-2-2-2----2-2-2-0h2-2-2-

e--------------------------------------------------------------
b--------------------------------------------------------------
g--------------------------------------------------------------
d--------------------------------------------------------------
a-0h2--2-2-2-2----2-2-2-0h2-2-2--0h2--2-2-2-2----2-2-2--13----
d-0h2--2-2-2-2----2-2-2-0h2-2-2--0h2--2-2-2-2----2-2-2--13----

Verses:

e--------------------------------------------------------------
b--------------------------------------------------------------
g--------------------------------------------------------------
d--------------------------------------------------------------
a-0h2--2---0-2---0h2-2-0h2-2-2--2h3--3---3-3/8--8--8--8-8-8-8--
d-0h2--2---0-2---0h2-2-0h2-2-2--2h3--3---3-3/8--8--8--8-8-8-8--
endings 1-3

e--------------------------------------------------------------
b--------------------------------------------------------------
g--------------------------------------------------------------
d--------------------------------------------------------------
a-0h2--2---0-2---0h2-2-0h2-2-2---0h2--2---0-2---0h2-2-0h2-2-2--
d-0h2--2---0-2---0h2-2-0h2-2-2---0h2--2---0-2---0h2-2-0h2-2-2--

endings 2-4

e--------------------------------------------------------------
b--------------------------------------------------------------
g--------------------------------------------------------------
d--------------------------------------------------------------
a-0h2--2---0-2---0h2-2-0h2-2-2---0h2--2---0-2---0h2-2-0--------
d-0h2--2---0-2---0h2-2-0h2-2-2---0h2--2---0-2---0h2-2-0--------

then,

x 2
e-----------------------------------------------------------------
b-----------------------------------------------------------------
g-----------------------------------------------------------------
d-2-2-2-2-2-2-2-2-2-2-2-2-2-2-2-2-1-1-1-1-1-1-9-9-9-9-9-9-9-9-9-9-
a-----------------------------------------------------------------
d-2-2-2-2-2-2-2-2-2-2-2-2-2-2-2-2-1-1-1-1-1-1-9-9-9-9-9-9-9-9-9-9-

e-------------------------------------------------------------------
b-------------------------------------------------------------------
g-------------------------------------------------------------------
d-1010101010101010-1010101010101010-5-5-5-5-5-5-9-9-9-9-9-9-9-9-9-9-
a-------------------------------------------------------------------
d-1010101010101010-1010101010101010-5-5-5-5-5-5-9-9-9-9-9-9-9-9-9-9-

before chorus

e-----------------------------------------------
b-----------------------------------------------
g-2----2---2---2----------2---2---2---2---------
d-2----2---2---2----------2---1---1---1---------
a-0----0---0---0-----x-x--0---0---0---0--x------
d--------------------x-x-----------------x-15--

Chorus:

e----------------------------------------------
b----------------------------------------------
g----------------------------------------------
d-5----5--5--4---4--4-----2----2--4---4--4--0--
a-3----3--3--3---3--3-----2----2--2---2--2--0--
d----------------------0--2----2--2---2--2--0--

e--------------------------------------------
b--------------------------------------------
g--------------------------------------------
d-5---5-5--4---4--4--4--4----4--4---4--2--2--
a-3---3-3--3---3--3--3--2----2--2---2--2--2--
d-----------------------2----2--2---2--2--2--

e--------------------------------------------
b--------------------------------------------
g--------------------------------------------
d-5---5-5--4---4--4--4--2----2--4---2--2--0--
a-3---3-3--3---3--3--3--2----2--2---2--2--0--
d-----------------------2----2--2---2--2--0--

1st & 2nd chorus endings:

e-----------------------------
b-----------------------------
g-----------------------------
d-9---9-9---9-9---9-9---5-----
a-9---9-9---9-9---9-9---5-----
d-9---9-9---9-9---9-9---5-----

1st Interlude:

e--------------------------------------------------------------
b--------------------------------------------------------------
g--------------------------------------------------------------
d--------------------------------------------------------------
a--------------------------------------------------------------
d-0h2--2-2-2-2----2-2-2-0h2-2-2--0h2--2-2-2-2----2-2-2-0h2-2-2-

e--------------------------------------------------------------
b--------------------------------------------------------------
g--------------------------------------------------------------
d--------------------------------------------------------------
a-0h2--2-2-2-2----2-2-2-0h2-2-2--0h2--2-2-2-2----2-2-2-x-x-x-x-
d-0h2--2-2-2-2----2-2-2-0h2-2-2--0h2--2-2-2-2----2-2-2-x-x-x-x-

Interlude 2:

e-----------------------------------------------
b-----------------------------------------------
g-------------------2------------------------
d-2--2--2--------3-------2--2--2-------------
a-2--2--2-----2----------2--2--2-------------
d-2--2--2----------------2--2--2----------------

e-----------------------------------------------
b-----------------------------------------------
g-------------------2---------------------------
d-2--2--2--------3-------2--2--2-------------
a-2--2--2-----2----------2--2--2----------
d-2--2--2----------------2--2--2----------------

Bridge: x4

e--------------------------------------------------
b--------------------------------------------------
g--------------------2--------------------------
d-2--2--2---------3------2--2--2-------------
a-2--2--2----0-2---------2--2--2----0-----------
d-2--2--2----0-----------2--2--2----0--------------

e--------------------------------------------------
b--------------------------------------------------
g--------------------2-----------------------------
d-2--2--2---------3------2--2--2-------------
a-2--2--2----0-2---------2--2--2----0--------
d-2--2--2----0-----------2--2--2----0--------------

3rd chorus ending

e----------------------------------
b----------------------------------
g----------------------------------
d-9-9---9-9---9-9---5-5---5-5-5-5--
a-9-9---9-9---9-9---5-5---5-5-5-5--
d-9-9---9-9---9-9---5-5---5-5-5-5--

4th chorus ending

e---------------------------------
b---------------------------------
g---------------------------------
d---------------------------------
a-0h2---0h2---0h2---0h2--5-5-5-5--
d------------------------5-5-5-5--

Outro:

x2
e--------------------------------------------------------------
b--------------------------------------------------------------
g--------------------------------------------------------------
d--------------------------------------------------------------
a--------------------------------------------------------------
d-0h2--2-2-2-2----2-2-2-0h2-2-2--0h2--2-2-2-2----2-2-2-0h2-2-2-

x2
e--------------------------------------------------------------
b--------------------------------------------------------------
g--------------------------------------------------------------
d--------------------------------------------------------------
a-0h2--2-2-2-2----2-2-2-0h2-2-2--0h2--2-2-2-2----2-2-2-0h2-2-2-
d-0h2--2-2-2-2----2-2-2-0h2-2-2--0h2--2-2-2-2----2-2-2-0h2-2-2-


that’s all

*from the Disturbed Tab book*

trevor jones
[email protected]


Текст, аккорды и табулатура для песни "Liberate", исполняет "Disturbed".
Используемые в песне аккорды можно найти в разделе Как брать аккорды. Аккорды для шестиструнной гитары. Другие песни можно найти на нашем сайте, воспользовавшись алфавитным указателем вверху страницы.


Слушать онлайн Liberate


DisturbedLiberate на Яндекс.Музыке


 
Ошибка в тексте? Выделите ошибку и нажмите Ctrl+Enter