Disturbed - Down With The Sickness

h=Hameron
P=Pulloff
/=Slide to right
=Slide to left
x=Pal mute
v=Downstorke
^=Upstorke

Use Upstorke, downstorke, and so on,
trough almost the entire song.
No, I know this is not everything but when 
I'm done ill post it... have fun...
And by the way, this is my first tab...  :)

Intro:

Drum intro... And then...                    

Can you feel that?
  ^ v  ^ v   ^ v  ^ v   ^ v ^ v ... And So On                                     
|----------|----------|-------------------|
|----------|----------|-------------------|
|-x-x--x-x-|-x-x--x-x-|-x-x-x-x--x-x--x-x-|
|-x-x--x-x-|-x-x--x-x-|-x-x-x-x--x-x--x-x-|
|-x-x--x-x-|-x-x--x-x-|-x-x-x-x--x-x--x-x-|
|-x-x--x-x-|-x-x--x-x-|-x-x-x-x--x-x--x-x-|


|----------|-------------------|----------|
|----------|-------------------|----------|
|-x-x--x-x-|-x-x-x-x--x-x--x-x-|-x-x--x-x-|
|-x-x--x-x-|-x-x-x-x--x-x--x-x-|-x-x--x-x-|
|-x-x--x-x-|-x-x-x-x--x-x--x-x-|-x-x--x-x-|
|-x-x--x-x-|-x-x-x-x--x-x--x-x-|-x-x--x-x-|


|-------------------|----------|
|-------------------|----------|
|-x-x-x-x--x-x--x-x-|-x-x--x-x-|
|-x-x-x-x--x-x--x-x-|-x-x--x-x-|
|-x-x-x-x--x-x--x-x-|-x-x--x-x-|
|-x-x-x-x--x-x--x-x-|-x-x--x-x-|

Ah shit...            Play this with clear sound... maybe a little distortion
|-----------|-----------|-------------------|
|-----------|-----------|-------------------|
|-----------|-----------|-------------------|
|-2-5-2-3-2-|-2-5-2-3-2-|-2-5-2-3-2-5-2-3-2-|
|-----------|-----------|-------------------|          
|-----------|-----------|-------------------|                    


|-----------|-------------------|
|-----------|-------------------|
|-----------|-------------------|
|-2-5-2-3-2-|-2-5-2-3-2-5-2-3-2-|
|-----------|-------------------|          
|-----------|-------------------|                    

                                             Ew ah,ah,ah,ah!
|-----------|-------------------|-----------|
|-----------|-------------------|-----------|
|-----------|-------------------|-----------|
|-2-5-2-3-2-|-2-5-2-3-2-5-2-3-2-|-2-5-2-3-2-|
|-----------|-------------------|-----------|          
|-----------|-------------------|-----------|

This should be played with heavy distortion
|-----------|-----------|-------------------|
|-----------|-----------|-------------------|
|-----------|-----------|-------------------|
|-2h5-2h3-2-|-2h5-2h3-2-|-2h5-2h3-2h5-2h3-2-|
|-2h5-2h3-2-|-2h5-2h3-2-|-2h5-2h3-2h5-2h3-2-|
|-2h5-2h3-2-|-2h5-2h3-2-|-2h5-2h3-2h5-2h3-2-|


|-----------|-------------------|
|-----------|-------------------|
|-----------|-------------------|
|-2h5-2h3-2-|-2h5-2h3-2h5-2h3-2-|
|-2h5-2h3-2-|-2h5-2h3-2h5-2h3-2-|
|-2h5-2h3-2-|-2h5-2h3-2h5-2h3-2-|

                                             Ew ah,ah,ah,ah!
|-----------|-------------------|-----------|------------|
|-----------|-------------------|-----------|------------|
|-----------|-------------------|-----------|------------|
|-2h5-2h3-2-|-2h5-2h3-2h5-2h3-2-|-2h5-2h3-2-|-2--5-5-5-5-|
|-2h5-2h3-2-|-2h5-2h3-2h5-2h3-2-|-2h5-2h3-2-|-2--5-5-5-5-|
|-2h5-2h3-2-|-2h5-2h3-2h5-2h3-2-|-2h5-2h3-2-|-2--5-5-5-5-|

                          Oh!         Oh!
|-----------|-----------|-------------------|
|-----------|-----------|-------------------|
|-----------|-----------|-------------------|
|-2h5-2h3-2-|-2h5-2h3-2-|-2h5-2h3-2h5-2h3-2-|
|-2h5-2h3-2-|-2h5-2h3-2-|-2h5-2h3-2h5-2h3-2-|
|-2h5-2h3-2-|-2h5-2h3-2-|-2h5-2h3-2h5-2h3-2-|

              Oh!         Oh!
|-----------|-------------------|
|-----------|-------------------|
|-----------|-------------------|
|-2h5-2h3-2-|-2h5-2h3-2h5-2h3-2-|
|-2h5-2h3-2-|-2h5-2h3-2h5-2h3-2-|
|-2h5-2h3-2-|-2h5-2h3-2h5-2h3-2-|

              Oh!          Oh!             Intro End.                  
|-----------|-------------------|---------------------|
|-----------|-------------------|---------------------|
|-----------|-------------------|---------------------|
|-2h5-2h3-2-|-2h5-2h3-2h5-2h3-2-|-2h5-3-3-3-3-3-3-3-3-|
|-2h5-2h3-2-|-2h5-2h3-2h5-2h3-2-|-2h5-3-3-3-3-3-3-3-3-|
|-2h5-2h3-2-|-2h5-2h3-2h5-2h3-2-|-2h5-3-3-3-3-3-3-3-3-|


Verse1:

|-----------|-----------|-------------------|
|-----------|-----------|-------------------|
|-----------|-----------|-------------------|
|-----------|-----------|-------------------|
|-----------|-----------|-------------------|
|-2-2-2-2-2-|-2-2-2-2-2-|-2-2-2-2-2-2-2-2-2-|


|-----------|-------------------|
|-----------|-------------------|
|-----------|-------------------|
|-----------|-------------------|
|-----------|-------------------|
|-2-2-2-2-2-|-2-2-2-2-2-2-2-2-2-|


|-----------|-------------------|-----------|
|-----------|-------------------|-----------|
|-----------|-------------------|-----------|
|-----------|-------------------|-----------|
|-----------|-------------------|-----------|
|-2-2-2-2-2-|-2-2-2-2-2-2-2-2-2-|-2-2-2-2-2-|

2'nd. Guitar fill
|-----------|
|---12h15---|
|-----------|
|-----------|
|-----------|
|-----------|
____   ____/
      /
|-----------|-----------|-------------------|
|-----------|-----------|-------------------|
|-----------|-----------|-------------------|
|-----------|-----------|-------------------|
|-----------|-----------|-------------------|
|-2-2-2-2-2-|-2-2-2-2-2-|-2-2-2-2-2-2-2-2-2-|


|-----------|-------------------|
|-----------|-------------------|
|-----------|-------------------|
|-----------|-------------------|
|-----------|-------------------|
|-2-2-2-2-2-|-2-2-2-2-2-2-2-2-2-|

                                         Verse 1 end.
|-----------|-------------------|----------------|
|-----------|-------------------|----------------|
|-----------|-------------------|----------------|
|-----------|-------------------|------------2-2-|
|-----------|-------------------|------------2-2-|
|-2-2-2-2-2-|-2-2-2-2-2-2-2-2-2-|-2-2-2-2-2--2-2-|


Pre Chorus:

|-----------|-----------|-------------------|
|-----------|-----------|-------------------|
|-----------|-----------|-------------------|
|-2h5-2h3-2-|-2h5-2h3-2-|-2h5-2h3-2h5-2h3-2-|
|-2h5-2h3-2-|-2h5-2h3-2-|-2h5-2h3-2h5-2h3-2-|
|-2h5-2h3-2-|-2h5-2h3-2-|-2h5-2h3-2h5-2h3-2-|


|-----------|-------------------|
|-----------|-------------------|
|-----------|-------------------|
|-2h5-2h3-2-|-2h5-2h3-2h5-2h3-2-|
|-2h5-2h3-2-|-2h5-2h3-2h5-2h3-2-|
|-2h5-2h3-2-|-2h5-2h3-2h5-2h3-2-|

                                             
|-----------|-------------------|-----------|---------|
|-----------|-------------------|-----------|---------|
|-----------|-------------------|-----------|---------|
|-2h5-2h3-2-|-2h5-2h3-2h5-2h3-2-|-2h5-2h3-2-|-2-2-2-2-|
|-2h5-2h3-2-|-2h5-2h3-2h5-2h3-2-|-2h5-2h3-2-|-2-2-2-2-|
|-2h5-2h3-2-|-2h5-2h3-2h5-2h3-2-|-2h5-2h3-2-|-2-2-2-2-|


|-----------|-----------|-------------------|
|-----------|-----------|-------------------|
|-----------|-----------|-------------------|
|-2h5-2h3-2-|-2h5-2h3-2-|-2h5-2h3-2h5-2h3-2-|
|-2h5-2h3-2-|-2h5-2h3-2-|-2h5-2h3-2h5-2h3-2-|
|-2h5-2h3-2-|-2h5-2h3-2-|-2h5-2h3-2h5-2h3-2-|


|-----------|-------------------|
|-----------|-------------------|
|-----------|-------------------|
|-2h5-2h3-2-|-2h5-2h3-2h5-2h3-2-|
|-2h5-2h3-2-|-2h5-2h3-2h5-2h3-2-|
|-2h5-2h3-2-|-2h5-2h3-2h5-2h3-2-|

                                             
|-----------|-------------------|-----------|---------|
|-----------|-------------------|-----------|---------|
|-----------|-------------------|-----------|---------|
|-2h5-2h3-2-|-2h5-2h3-2h5-2h3-2-|-2h5-2h3-2-|-2-2-2-2-|
|-2h5-2h3-2-|-2h5-2h3-2h5-2h3-2-|-2h5-2h3-2-|-2-2-2-2-|
|-2h5-2h3-2-|-2h5-2h3-2h5-2h3-2-|-2h5-2h3-2-|-2-2-2-2-|

Tabbed by The_DuDer


Текст, аккорды и табулатура для песни "Down With The Sickness", исполняет "Disturbed".
Используемые в песне аккорды можно найти в разделе Как брать аккорды. Аккорды для шестиструнной гитары. Другие песни можно найти на нашем сайте, воспользовавшись алфавитным указателем вверху страницы.


Слушать онлайн Down With The Sickness


DisturbedDown With The Sickness на Яндекс.Музыке


 
Ошибка в тексте? Выделите ошибку и нажмите Ctrl+Enter