this song is awesome and i hope my tab is right

standard tuning (i think)

intro

|----------------------------------------------|
|----------------------------------------------|
|--------------------------------------------2-|  repeat as ness
|-3-2-75--3-2-3-2-3-0__0--3-2-75--3-2-3-2-3--|

verse

|--------------------------------|
|--------------------------------|
|--------------------------------| repeat as ness
|-0-3-2-75--0-3-2-75-7-5-7-5-5-|
                       s s s s s

chorus

|--------------------------|
|--------------------------|
|-0--------2----0--------2-|  repeat as ness
|----3-3-3---------3-3-3---|

break

|-----------------------------|
|-----------------------------|
|-----------------------------|   repeat as ness
|-0-0-0-0-3-0-0-0-0-3-0-0-0-5-|
  s s s s s s s s s s s s s s

pre verse

|-------------------|
|-------------------|
|-------------------|  repeat as ness
|-5p3-0-x-0-5p3-0-x-|


vocal & bass break

|------------------------------------------------------------------|
|------------------------------------------------------------------|   cont'd
|------------0-------2__-2---------2__-0__---2__-2---------2__-0---|_   below
|-0_____---0---2__-2-------3__-2__---------2-------3__-2__---------|

|---------------------------------|
|---------------------------------|
|-0-2-4__-4-2-0__-0-2-4__-4-2-0---|_
|---------------------------------|

chorus again

outro

|---------------------------------|
|---------------------------------|
|---------------------------------|  till end
|-5-5-5-5-5-5-5-5-5-5-5-5-5-5-5-5-|
  s s s s s s s s s s s s s s s s


Текст, аккорды и табулатура для песни "Awaken", исполняет "Disturbed".
Используемые в песне аккорды можно найти в разделе Как брать аккорды. Аккорды для шестиструнной гитары. Другие песни можно найти на нашем сайте, воспользовавшись алфавитным указателем вверху страницы.


Слушать онлайн Awaken


DisturbedAwaken на Яндекс.Музыке


 
Ошибка в тексте? Выделите ошибку и нажмите Ctrl+Enter