Notes: Acoustic for the verse, Distortion for the solo & chorus

E||------------------------|------------------------|------------------------|
B||------------------------|------------------------|------------------------|
G||------------------------|--5----x--5----5--5--x--|------------------------|
D||--7----x--7----7--7--7--|--5----x--5----5--5--x--|--3----x--3----3--3--3--|
A||--7----x--7----7--7--7--|--3----x--3----3--3--x--|--3----x--3----3--3--3--|
E||--5----x--5----5--5--5--|------------------------|--1----x--1----1--1--1--|


                         4x                                                  
-------------------------||------------------------|------------------------|
-------------------------||------------------------|------------------------|
--4----x--4----4--4--4--*||------------------------|--5----x--5----5--5--x--|
--4----x--4----4--4--4--*||--7----x--7----7--7--7--|--5----x--5----5--5--x--|
--2----x--2----2--2--2---||--7----x--7----7--7--7--|--3----x--3----3--3--x--|
-------------------------||--5----x--5----5--5--5--|------------------------|


                                                                             
------------------------|------------------------||-------------------------|
------------------------|------------------------||-------------------------|
------------------------|--4----x--4----4--4--4--||*------------------------|
--3----x--3----3--3--3--|--4----x--4----4--4--4--||*--5----5----5--2--2--2--|
--3----x--3----3--3--3--|--2----x--2----2--2--2--||---5----5----5--2--2--2--|
--1----x--1----1--1--1--|------------------------||---3----3----3--0--0--0--|


                         3x                                                  
-------------------------||------------------------|------------------------|
-------------------------||------------------------|------------------------|
------------------------*||------------------------|--5----x--5----5--5--x--|
--3----3----3--2--2--2--*||--7----x--7----7--7--7--|--5----x--5----5--5--x--|
--3----3----3--2--2--2---||--7----x--7----7--7--7--|--3----x--3----3--3--x--|
--1----1----1--0--0--0---||--5----x--5----5--5--5--|------------------------|


                                                                           
------------------------|------------------------|------------------------|
------------------------|------------------------|------------------------|
------------------------|--4----x--4----4--4--4--|------------------------|
--3----x--3----3--3--3--|--4----x--4----4--4--4--|--7----x--7----7--7--7--|
--3----x--3----3--3--3--|--2----x--2----2--2--2--|--7----x--7----7--7--7--|
--1----x--1----1--1--1--|------------------------|--5----x--5----5--5--5--|


                                                                           
------------------------|------------------------|------------------------|
------------------------|------------------------|------------------------|
--5----x--5----5--5--x--|------------------------|--4----x--4----4--4--4--|
--5----x--5----5--5--x--|--3----x--3----3--3--3--|--4----x--4----4--4--4--|
--3----x--3----3--3--x--|--3----x--3----3--3--3--|--2----x--2----2--2--2--|
------------------------|--1----x--1----1--1--1--|------------------------|


                                                                           
------------------------|------------------------|------------------------|
------------------------|------------------------|------------------------|
------------------------|--5----x--5----5--5--x--|------------------------|
--7----x--7----7--7--7--|--5----x--5----5--5--x--|--3----x--3----3--3--3--|
--7----x--7----7--7--7--|--3----x--3----3--3--x--|--3----x--3----3--3--3--|
--5----x--5----5--5--5--|------------------------|--1----x--1----1--1--1--|


                                                                             
------------------------||-------------------------|------------------------|
------------------------||-------------------------|------------------------|
--4----x--4----4--4--4--||*------------------------|--5----x--5----5--5--x--|
--4----x--4----4--4--4--||*--7----x--7----7--7--7--|--5----x--5----5--5--x--|
--2----x--2----2--2--2--||---7----x--7----7--7--7--|--3----x--3----3--3--x--|
------------------------||---5----x--5----5--5--5--|------------------------|


                                                  4x                          
------------------------|-------------------------||-------------------------|
------------------------|-------------------------||-------------------------|
------------------------|--4----x--4----4--4--4--*||*------------------------|
--3----x--3----3--3--3--|--4----x--4----4--4--4--*||*--5----5----5--2--2--2--|
--3----x--3----3--3--3--|--2----x--2----2--2--2---||---5----5----5--2--2--2--|
--1----x--1----1--1--1--|-------------------------||---3----3----3--0--0--0--|


                         6x                                                  
-------------------------||------------------------|------------------------|
-------------------------||------------------------|------------------------|
------------------------*||------------------------|------------------------|
--3----3----3--2--2--2--*||--5----x--5--5----x--5--|--2----x--2--2----x--2--|
--3----3----3--2--2--2---||--5----x--5--5----x--5--|--2----x--2--2----x--2--|
--1----1----1--0--0--0---||--3----x--3--3----x--3--|--0----x--0--0----x--0--|


                                                                           
------------------------|------------------------|------------------------|
------------------------|------------------------|------------------------|
------------------------|--5----x--5----5--5--x--|------------------------|
--7----x--7----7--7--7--|--5----x--5----5--5--x--|--3----x--3----3--3--3--|
--7----x--7----7--7--7--|--3----x--3----3--3--x--|--3----x--3----3--3--3--|
--5----x--5----5--5--5--|------------------------|--1----x--1----1--1--1--|


                                                                           
------------------------|------------------------|------------------------|
------------------------|------------------------|------------------------|
--4----x--4----4--4--4--|------------------------|--5----x--5----5--5--x--|
--4----x--4----4--4--4--|--7----x--7----7--7--7--|--5----x--5----5--5--x--|
--2----x--2----2--2--2--|--7----x--7----7--7--7--|--3----x--3----3--3--x--|
------------------------|--5----x--5----5--5--5--|------------------------|


                                                                           
------------------------|------------------------|------------------------|
------------------------|------------------------|------------------------|
------------------------|--4----x--4----4--4--4--|------------------------|
--3----x--3----3--3--3--|--4----x--4----4--4--4--|--7----x--7----7--7--7--|
--3----x--3----3--3--3--|--2----x--2----2--2--2--|--7----x--7----7--7--7--|
--1----x--1----1--1--1--|------------------------|--5----x--5----5--5--5--|


                                                                           
------------------------|------------------------|------------------------|
------------------------|------------------------|------------------------|
--5----x--5----5--5--x--|------------------------|--4----x--4----4--4--4--|
--5----x--5----5--5--x--|--3----x--3----3--3--3--|--4----x--4----4--4--4--|
--3----x--3----3--3--x--|--3----x--3----3--3--3--|--2----x--2----2--2--2--|
------------------------|--1----x--1----1--1--1--|------------------------|


                                                                           
------------------------|------------------------|------------------------|
------------------------|------------------------|------------------------|
------------------------|--5----x--5----5--5--x--|------------------------|
--7----x--7----7--7--7--|--5----x--5----5--5--x--|--3----x--3----3--3--3--|
--7----x--7----7--7--7--|--3----x--3----3--3--x--|--3----x--3----3--3--3--|
--5----x--5----5--5--5--|------------------------|--1----x--1----1--1--1--|


                                                                           
------------------------|------------------------|------------------------|
------------------------|------------------------|------------------------|
--4----x--4----4--4--4--|------------------------|--5----x--5----5--5--x--|
--4----x--4----4--4--4--|--7----x--7----7--7--7--|--5----x--5----5--5--x--|
--2----x--2----2--2--2--|--7----x--7----7--7--7--|--3----x--3----3--3--x--|
------------------------|--5----x--5----5--5--5--|------------------------|


                                                                           
------------------------|------------------------|------------------------|
------------------------|------------------------|------------------------|
------------------------|--4----x--4----4--4--4--|------------------------|
--3----x--3----3--3--3--|--4----x--4----4--4--4--|--7----x--7----7--7--7--|
--3----x--3----3--3--3--|--2----x--2----2--2--2--|--7----x--7----7--7--7--|
--1----x--1----1--1--1--|------------------------|--5----x--5----5--5--5--|


                                                                           
------------------------|------------------------|------------------------|
------------------------|------------------------|------------------------|
--5----x--5----5--5--x--|------------------------|--4----x--4----4--4--4--|
--5----x--5----5--5--x--|--3----x--3----3--3--3--|--4----x--4----4--4--4--|
--3----x--3----3--3--x--|--3----x--3----3--3--3--|--2----x--2----2--2--2--|
------------------------|--1----x--1----1--1--1--|------------------------|


                                                    6x                         
|-------------------------|-------------------------||------------------------|
|-------------------------|-------------------------||------------------------|
|*------------------------|------------------------*||------------------------|
|*--5----5----5--2--2--2--|--3----3----3--2--2--2--*||--5----x--5--5----x--5--|
|---5----5----5--2--2--2--|--3----3----3--2--2--2---||--5----x--5--5----x--5--|
|---3----3----3--0--0--0--|--1----1----1--0--0--0---||--3----x--3--3----x--3--|


                                                               
------------------------|
------------------------|
------------------------|
--2----x--2--2----x--2--|
--2----x--2--2----x--2--|
--0----x--0--0----x--0--|

Then the solo

|--------------------|-----------------------|
|--------------------|-----------------------|
|----------5~---5~---|---------5----4--2--4--|
|--------------------|--7~-------------------|
|--------------------|-----------------------|
|--------------------|-----------------------|


                                                                     
---------------------|-----------------------|----------------------|
---------------------|-----------------------|----------------------|
---------------------|-----------------------|----------------------|
--5~-------5/---7----|----7----6----6--6/-7~-|----7--7/-9----9------|
---------------------|-----------------------|----------------------|
---------------------|-----------------------|----------------------|


                                                                      
-----------------------|---------------------|-----------------------|
-----------------------|---------------------|-----------------------|
---------5----4--2--4--|---------------------|-----------------------|
--7~-------------------|--5--------5/---3/---|--7~---7~---6~---6--6--|
-----------------------|---------------------|-----------------------|
-----------------------|---------------------|-----------------------|


                                                                    
-----------------------|-----------------------|-------------------|
-----------------------|-----------------------|-------------------|
-----------------------|---------5----4--2--4--|--5~---------------|
----7----7--7--9--9----|--7~-------------------|-------------------|
-----------------------|-----------------------|-------------------|
-----------------------|-----------------------|-------------------|


                                                                    
---------------------|---------------------|-----------------------|
---------------------|---------------------|-----------------------|
--5h---7----7r-------|----------5/-4----2--|---------5----4--2--4--|
---------------------|---------------------|--7~-------------------|
---------------------|---------------------|-----------------------|
---------------------|---------------------|-----------------------|


                                                                             
----------------------|--------------------------|--------------------------|
----------------------|--------------------------|--------------------------|
----------------------|--------------------------|--------------------------|
--5~-------5--5--5----|--5~-5~-5~-5~-5~-5~-5~-5~-|--5~-5~-5~-5~-5~-5~-5~-5--|
----------------------|--------------------------|--------------------------|
----------------------|--------------------------|--------------------------|




After the solo

|------------------------|--------------------------|
|------------------------|--------------------------|
|------------------------|--5--5--5--5--5--5--5--5--|
|7--7--7--7--7--7--7--7--|--5--5--5--5--5--5--5--5--|
|7--7--7--7--7--7--7--7--|--3--3--3--3--3--3--3--3--|
|5--5--5--5--5--5--5--5--|--------------------------|


                                                      
--------------------------|--------------------------|
--------------------------|--------------------------|
--------------------------|--4--4--4--4--4--4--4--4--|
--3--3--3--3--3--3--3--3--|--4--4--4--4--4--4--4--4--|
--3--3--3--3--3--3--3--3--|--2--2--2--2--2--2--2--2--|
--1--1--1--1--1--1--1--1--|--------------------------|


                                                      
--------------------------|--------------------------|
--------------------------|--------------------------|
--------------------------|--5--5--5--5--5--5--5--5--|
--7--7--7--7--7--7--7--7--|--5--5--5--5--5--5--5--5--|
--7--7--7--7--7--7--7--7--|--3--3--3--3--3--3--3--3--|
--5--5--5--5--5--5--5--5--|--------------------------|


                                                      
--------------------------|--------------------------|
--------------------------|--------------------------|
--------------------------|--4--4--4--4--4--4--4--4--|
--3--3--3--3--3--3--3--3--|--4--4--4--4--4--4--4--4--|
--3--3--3--3--3--3--3--3--|--2--2--2--2--2--2--2--2--|
--1--1--1--1--1--1--1--1--|--------------------------|


                                                      
--------------------------|--------------------------|
--------------------------|--------------------------|
--------------------------|--5--5--5--5--5--5--5--5--|
--7--7--7--7--7--7--7--7--|--5--5--5--5--5--5--5--5--|
--7--7--7--7--7--7--7--7--|--3--3--3--3--3--3--3--3--|
--5--5--5--5--5--5--5--5--|--------------------------|


                                                                          
--------------------------|--------------------------|-------------------|
--------------------------|--------------------------|-------------------|
--------------------------|--4--4--4--4--4--4--4--4--|-------------------|
--3--3--3--3--3--3--3--3--|--4--4--4--4--4--4--4--4--|--2----------------|
--3--3--3--3--3--3--3--3--|--2--2--2--2--2--2--2--2--|--2----------------|
--1--1--1--1--1--1--1--1--|--------------------------|--0----------------|



And this next bit is played under the verse by a second guitar

------------------------|------------------------|------------------------|
------------------------|------------------------|------------------------|
------------------------|------------------------|------------------------|
--7----7--7----7--7/-5--|------------------------|------------------------|
------------------------|--7----7--7----7--7/-8--|--8----8--8----8--8/-7--|
------------------------|------------------------|------------------------|


                                                                           
------------------------|------------------------|------------------------|
------------------------|------------------------|------------------------|
------------------------|------------------------|------------------------|
------------------7/-5--|--5/-7--7----7--7----7/-|--5----5--5----5--5/-7--|
--7----7--7----7--------|------------------------|------------------------|
------------------------|------------------------|------------------------|


                                                                           
-------------------------|----------------------------|-------------------|
-------------------------|----------------------------|-------------------|
-------------------------|----------------------------|-------------------|
--7----7--7----7--7/-12--|--12----12--12----12--12/---|--7----------------|
-------------------------|----------------------------|-------------------|
-------------------------|----------------------------|-------------------|


Текст, аккорды и табулатура для песни "The Hunger", исполняет "Distillers".
Используемые в песне аккорды можно найти в разделе Как брать аккорды. Аккорды для шестиструнной гитары. Другие песни можно найти на нашем сайте, воспользовавшись алфавитным указателем вверху страницы.


Слушать онлайн The Hunger


The DistillersThe Hunger на Яндекс.Музыке


 
Ошибка в тексте? Выделите ошибку и нажмите Ctrl+Enter