standard tuning

Intro:
[--------------------------------------------]
[--------------------------------------------]
[--------------------------------------------]
[-999-777----999-777----999-777----999-777---]
[--------77---------77---------77---------77-] 
[--------------------------------------------]  
                                                  X 4
[--------------------------------------------]   /
[--------------------------------------------]. /
[--------77--------77--------77-------77-----] /
[-999-777---999-777---999-777--999-777-------]/
[--------------------------------------------]
[--------------------------------------------]

Verse:
[--------------------------------------------]
[--------------------------------------------]
[-55555555----------44444444-55555555--------]
[-55555555-55555555-44444444-55555555--------]
[-33333333-55555555-22222222-33333333--------] 
[----------33333333--------------------------]  
                                                   X2
[--------------------------------------------]   /
[--------------------------------------------]  /
[-55555555----------44444444-99999999--------] /
[-55555555-55555555-44444444-99999999--------]/
[-33333333-55555555-22222222-77777777--------]
[----------33333333--------------------------]

[----------------------------------------------]
[----------------------------------------------]
[-5-4--5-4--5-4--------------------------------]
[-5-4--5-4--5-4--------------------------------]
[-3-2--3-2--3-2--------------------------------]
[----------------------------------------------]

Chorus:
[----------------------------------------------------]
[----------------------------------------------------]
[-99999999----------------------------------44444444-]
[-99999999-10-10-10-10-10-10-10-10-55555555-44444444-]
[-77777777-10-10-10-10-10-10-10-10-55555555-22222222-]
[----------8--8--8--8--8--8--8--8--33333333----------]

Solo:
[----------------------------------------------------]
[----------------------------------------------------] 
[-9-9-9-7-9-11^-9-7-9-7-9-12-12-12-11-9-8------------]   X2
[----------------------------------------------------]  /
[----------------------------------------------------] /
[----------------------------------------------------]/

Bridge:
[----------------------------------------------------]
[----------------------------------------------------]
[-99999999----------------------------------44444444-]
[-99999999-10-10-10-10-10-10-10-10-55555555-44444444-]
[-77777777-10-10-10-10-10-10-10-10-55555555-22222222-]
[----------8--8--8--8--8--8--8--8--33333333----------]
 PM...................................................


Текст, аккорды и табулатура для песни "For Tonight Your Only Here To Know", исполняет "Distillers".
Используемые в песне аккорды можно найти в разделе Как брать аккорды. Аккорды для шестиструнной гитары. Другие песни можно найти на нашем сайте, воспользовавшись алфавитным указателем вверху страницы.


 
Ошибка в тексте? Выделите ошибку и нажмите Ctrl+Enter