Джентельмены удачи 2000


Вступление:
     e|---5-7---8-5-|-----5---7-|---------5----------------|
     h|-8-----8-----|-7-8---7---|-5-7-8-5---5---4-5-7-4--5-|


  e|---------------------------10-9--7---5-------------|---5-------------5----------|---5-------------------|
  h|-7-8-7-6-7---7-8-7-6-7---7---------7----8-7-8-7--5-|-5---8-7-8--5--5---8-7-8--5-|-5---8-7-5--8-7-5--8-7-|
  g|-----------7-----------6---------------------------|----------------------------|------------------6----|


  e|---------------------------10-9--7---5-------------|---12-10--9-10-9----12-10--9-10-9-|---12-10-12-10--10-9-7-6--9-7-|
  h|-7-8-7-6-7---7-8-7-6-7---7---------7----8-7-8-7--5-|-7----------------7---------------|-7----------------------------|
  g|-----------7-----------6---------------------------|----------------------------------|------------------------------|


  Hm                     F#
Один московский кент по прозвищу Доцент
  H7                         Em
Решил слетать с друзьями на Канары
  Em
Угнали самолет но непошел полет
  A7                   D  F#
Тусовка переехала на нары


Хотелось очень даже понежиться на пляже
А в Магадане поколено снега
Родился в тотже час уже в который раз      | 2 раза
План дерского и смелого побега             |

   Cm                G
На нарах полежали потом опять сбежали
   C7                         Fm
Хотелось к лучшей жизни прикаснуться
    Fm
От всей души гуляли хотя и понимали
     B                    D#
Что суждено обратно им вернуться


Я знаю жизнь такакя кого-то привлекает
Романтику не купишь в распрадаже
В любые времена любимая страна           | 2 раза
Богата на такие персонажи                |

Концовка
e|---------------------------11-10--8---6------------|---6-------------6----------|---6-------------------|
h|-8-9-8-7-8---8-9-8-7-8---8---------8----9-8-9-8--6-|-6---9-8-9--6--6---9-8-9--6-|-6---9-8-6--9-8-6--9-8-|
g|-----------8-----------7---------------------------|----------------------------|------------------7----|


e|---------------------------11-10--8---6------------|---13-11--10-11-10----13-11--10-11-10-|---13-11-13-11--11-10-8-7--10-8-|
h|-8-9-8-7-8---8-9-8-7-8---8---------8----9-8-9-8--6-|-8-----------------8------------------|-8------------------------------|
g|-----------8-----------7---------------------------|--------------------------------------|--------------------------------|



Текст, аккорды и табулатура для песни "Джентельмены удачи 2000", исполняет "Distemper".
Используемые в песне аккорды можно найти в разделе Как брать аккорды. Аккорды для шестиструнной гитары. Другие песни можно найти на нашем сайте, воспользовавшись алфавитным указателем вверху страницы.


Слушать онлайн Джентельмены удачи 2000


DistemperДжентельмены удачи 2000 на Яндекс.Музыке


 
Ошибка в тексте? Выделите ошибку и нажмите Ctrl+Enter