DISSECTION - FEATHER'S FELL
                         From the Album SOMBERLAIN
                         Copyright 1993 No Fashion Records
                              
                           Version 4.0a - MARCH 98
                                  
Transcribed by: Richard Broadhead II(), Jeremy Disten
For Questions, Comments, Corrections, or Newest Version; 
               please contact Rich Broadhead at 
               that other guy is [email protected]

Check Out My Web Page, With More Transcriptions On It:
               

p  - pull off                   h  - hammer on
  - slide down to              /  - slide up to

Tuning: Normal(1:E 2:B 3:G 4:D 5:A 6:E)

Many countless hours spent getting this as close to perfection as possible,
we think its perfect now!  Measures 1,2,5,6 are pretty average on difficulty
but measures 3 and 4 can be a bitch at times!!! 

|-0-----------------------------1-p0--1-p0--------------------------|
|----3--1--------0-----0-----3--------------3--1--0-----------------|
|----------2--2-----1-----1--------------------------1-h2--2--------|
|-------------------------------------------------0-----------------|
|-------0--------2--------------0-----3--------------3-2--3-p2--0--|
|-------------1-----0-----------------------------3-----------------|
                                                                   
|-0-----------------------------1-p0--1-p0--------------0-----------|
|----3--1--------0-----0-----3--------------3--1--0-----------------|
|----------2--2-----1-----1--------------------------1-----2--------|
|-------2-----------------------------------------0-----------------|
|-------0--------2--------------0--------------------3/2---0--------|
|-------------1-----0-----------------1-p0--------3-----------------|

|-8--7--5--------------------7--5--4--0-(5)/-8--7--5----------------|
|----------5--8--6--5-/6--3--------0------------0-----5-/6--5-------|
|-------2-------------------------------(2)/-5-----2----------------|
|-------------5--3--2-/3--0-----------2--------(6)----2-/3--2-------|
|-------0-----0------------------------------------0--0-----0-------|
|----------------------------------4-----0--------------------------|

|-8--7--5--------------------7--5--4--0-(5)/-8--7--5-----0----------|
|----------5--8--6--5-/6--3--------0------------0-------------------|
|-------2-------------------------------(2)/-5-----2--1-----2-------|
|-------------5--3--2-/3--0-----------2--------(6)------------------|
|-------0-----0--0---------------------------------0--------0-------|
|----------------------------------4-----0------------0-------------|

|-0-----------------------------1-p0--1-p0--------------------------|
|----3--1--------0-----0-----3--------------3--1--0-----------------|
|----------2--2-----1-----1--------------------------1-h2--2--------|
|-------2-----------------------------------------0-----------------|
|-------0--------2--------------0-----3--------------3-2--3-p2--0--|
|-------------1-----0-----------------------------3-----------------|

|-0-----------------------------1-p0--1-p0--------------0-----------|
|----3--1--------0-----0-----3--------------3--1--0-----------------|
|----------2--2-----1-----1--------------------------1-----2--------|
|-------2-----------2-----------------------------0--------2--------|
|-------0--------2--2-----------0-----3--------------3/2---0--------|
|-------------1----(0)----------------------------3-----------------|


Текст, аккорды и табулатура для песни "Feathers Fell", исполняет "Dissection".
Используемые в песне аккорды можно найти в разделе Как брать аккорды. Аккорды для шестиструнной гитары. Другие песни можно найти на нашем сайте, воспользовавшись алфавитным указателем вверху страницы.


 
Ошибка в тексте? Выделите ошибку и нажмите Ctrl+Enter