Elisabeth Bathori By Dissection
Taken from the Where dead angels lie Ep

Transcripted by [email protected]

A very nice song this one
Hope you enjoy it

Riif 1
E---------------------------
B---------------------------
G-------------------5---7---
D-9-9-7-9-9-7-9-9--5-5-7-7--
A-7-7-5-7-7-5-7-7-3---5-----
E---------------------------

Riff 2
E---------------------------------
B---------------------------------
G---------------------------------
D-9-9--8-8--9-9------9-9--8-8-----
A-7-77-6-66-7-77-5-5-7-77-6-66-8--
E----------------3-3-----------6--

Riff 3
E------------
B------------
G------------
D-9---9-7-9--
A-7---7-5-7--
E------------

Riff 4
E--------------
B--------------
G--------------
D----4---------
A-2--2--5------
E-0-----3-3-2--

Riff 5
E-------------------------------------------------------------------------------------3--
B-----------------------5--6--3----5--6--3---------------------------5--6--3----5--6--3--
G-2--5--1----2--5--1---------------------------2--5--1----2--5--1------------------------
D----------------------------------------------------------------------------------------
A----------------------------------------------------------------------------------------
E----------------------------------------------------------------------------------------

Riff 6
Not sure about this one
Sounds better with two guitars I think
E----------
B-2--5--1--
G-2--5--1--
D----------
A----------
E----------

And the song goes like this

Riff 1  8  times
Riff 2  2  times
Riff 1  4  times
Riff 2  2  times
Riff 3  4  times
Riff 4  12 times
Riff 1  5  times
Riff 2  2  times
Riff 5  1  times
Riff 6  8  times
Riff 1  4  times
Riff 2  2  times

As always: Listen to the song to get it right


Текст, аккорды и табулатура для песни "Elisabath Bathori", исполняет "Dissection".
Используемые в песне аккорды можно найти в разделе Как брать аккорды. Аккорды для шестиструнной гитары. Другие песни можно найти на нашем сайте, воспользовавшись алфавитным указателем вверху страницы.


 
Ошибка в тексте? Выделите ошибку и нажмите Ctrl+Enter