The General                                   


Acoustic Guitar
                                                           
E||-------------------------|-----------------------------|
B||-------------------------|--3--3----1------------------|
G||*------------------------|--3--3----2------------------|
D||*------------------------|--3--3----3------3--3h-5h-3--|
A||------------1----1-------|--1--1----3------------------|
E||---1--2--3----------3----|----------1------------------|


                                                                
------------------------|--3--3----3-------------|-------------|
------------------------|--4--4----3-------------|-------------|
------------------------|--5--5----4-------------|--------7----|
--5--3--0---------------|--5--5----5-------------|-------------|
-----------1-------3----|--3--3----5-------------|--1-----5----|
--------------3---------|----------3----1--2--3--|-----1-------|


                                                                          
-----------------------|--------------------------|----------------------|
-----------------------|--------------------------|----------------------|
--8---------8-------7--|-------7--7----7----7--7--|----------------------|
--8---------8-------8--|--x----8--8----8----8--8--|--3----3------3----3--|
--6---------6-------8--|--x----8--8----8----8--8--|--3----3------3----3--|
-------6---------6--6--|--x----6--6----6----6--6--|--1----1------1----1--|


                                                         Bb                   
--------------||-------------------|------------------|----------------------|
--------------||-------------------|------------------|---------3------------|
-------------*||-------------------|------------------|---------3----3-------|
--3----------*||--3----------------|------------------|---------3------3-----|
--3----x--x---||--3----------------|------------------|--1------1------------|
--1----x--x---||--1----------------|------------------|----------------------|


  F                      Cm                     G                    
----------------------|----------------------|----------------------|
---------1------------|---------4------------|---------3------------|
---------2----2-------|---------5----5-------|---------4----4-------|
---------3------3-----|---------5------5-----|---------5------5-----|
---------3------------|--3------3------------|---------5------------|
--1------1------------|----------------------|--3------3------------|


  Eb                     Bb                     F                    
----------------------|----------------------|----------------------|
---------8------------|---------6------------|-------x--1-----------|
---------8----8-------|---------7----7-------|-------x--2-----------|
---------8------8-----|---------8------8-----|----------------------|
--6------6------------|---------8------------|--------------------3-|
----------------------|--6------6------------|--1-------------------|


                                                                    
---------------------|---------------------|-----------------------|
---------------------|---------------------|-----------------------|
---------------------|---------3-----------|----------2------------|
--3-------------3----|---------3----3------|-------3-------3----5--|
---------------------|--1------------------|-----------------------|
-------1-------------|---------------------|--1--------------------|


                                                                 
---------------------|---------------------|--------------------|
---------------------|----------3----------|--------------------|
----------5----------|---------------------|---------8----------|
-------5-------------|-------5-------------|---------8----------|
--3------------------|---------------------|--6------6----------|
---------------------|--3------------------|--------------------|


                                                                 
---------------------|----------------------|-------------------|
---------------------|----------------------|-------------------|
---------7-----------|----------------------|-------------------|
---------8----8------|--3----3-------3---3--|--3----------------|
---------8----8------|--3----3-------3---3--|--3----------------|
--6------6-----------|--1----1-------1---1--|--1----------------|


                                                               
--------------------|--------------------|--------------------|
--------------------|--------------------|--------------------|
--3--------3--------|--2--------2--------|--5--------5--------|
--3--------3--------|--3--------3--------|--5--------5--------|
--1--------1--------|--3--------3--------|--3--------3--------|
--------------------|--1--------1--------|--------------------|


                                                                 
--------------------|-----------6--------|------------6--6------|
--------------------|-----------8--------|------------6--6------|
--------------------|--8-----------------|----------------------|
--5--------5--------|--8-----------------|----------------------|
--5--------5--------|--6-----------------|--8-------------------|
--3--------3--------|--------------------|-------6--------------|


                                                                 
----------1------------|-------------------|--------------------|
----------1------------|-------------------|--------------------|
-----------------------|-------------------|--3--------3--------|
--3----3-------3----3--|--3----------------|--3--------3--------|
--3----3-------3----3--|--3----------------|--1--------1--------|
--1----1-------1----1--|--1----------------|--------------------|


                                                               
--------------------|--------------------|--------------------|
--------------------|--------------------|--------------------|
--2--------2--------|--5--------5--------|--------------------|
--3--------3--------|--5--------5--------|--5--------5--------|
--3--------3--------|--3--------3--------|--5--------5--------|
--1--------1--------|--------------------|--3--------3--------|


                                                                      
---------6----6-------|----------6-----------|-----------------------|
---------6------------|----------6-----------|----------1------------|
--8--------------8/---|----------------------|----------2------------|
--8-------------------|----------------------|--3----3---------3--3--|
--6-------------------|--8--------------8----|--3----3---------3--3--|
----------------------|-------6---------6----|--1----1---------1--1--|


                                                                                
------------------|------------------|--------------------|--------------------
------------------|------------------|--------------------|--------------------
------------------|------------------|--------------------|--------------------
------------------|------------------|--3--------3--------|--------------------
------------------|------------------|--1--------1--------|--3--------3--------
------------------|------------------|--------------------|--1--------1--------


                                                               
---------3----------|--------------------|---------6----------|
---------4----------|--------------------|---------6----------|
--------------------|--------------------|--------------------|
--5-----------------|--------------------|--8-----------------|
--3-----------------|--5--------5--------|--6-----------------|
--------------------|--3--------3--------|--------------------|


                                                                     
---------6----------|---------1------1--1--|--------------1---------|
---------6----------|---------1------1--1--|--------------1------x--|
--------------------|----------------------|---------------------x--|
--------------------|--3-------------------|---------------------x--|
--8-----------------|--3-------------------|------------------------|
--6-----------------|--1-------------------|--1----1----------------|


                                                               
--------------------|--------------------|---------3----------|
--------------------|--------------------|---------4----------|
--------------------|--------------------|--------------------|
--3--------3--------|--------------------|--5-----------------|
--1--------1--------|--3--------3--------|--3-----------------|
--------------------|--1--------1--------|--------------------|


                                                                
--------------------|---------6----6------|---------6----------|
--------------------|---------6----6------|--------------------|
--------------------|---------------------|--------------------|
--------------------|--8------------------|--------------------|
--5--------5--------|--6------------------|--8-----------------|
--3--------3--------|---------------------|--6-----------------|


                                                                
---------------------|------------------||---6-----------------|
---------------------|------------------||---6-----------------|
---------------------|------------------||*--7--7--------------|
--3------3------3----|------------------||*--8--8--------------|
--3------3------3----|------------------||---8--8--------------|
--1------1------1----|------------------||---6-----------------|


                                                                  
------------------|-----3----3--3--3------|----------------------|
------------------|-----1----1--1--1------|----------------------|
------------------|--0--------------------|----------------------|
------------------|-----------------------|--5--5----5--5--------|
------------------|-----------------------|--5--5----5--5--------|
------------------|-----------------------|--3--3----3--3--------|


                                                                      
-----------------------|----------------------|----------------------|
-----------------------|----------------------|----------------------|
--8--8----8--8--8------|----------------------|----------------------|
--8--8----8--8--8------|--8--8----8--8--------|--3----3------3----3--|
--6--6----6--6--6------|--8--8----8--8--------|--3----3------3----3--|
-----------------------|--6--6----6--6--------|--1----1------1----1--|


                                                                    
--------------------||----------------------|----------------------|
--------------------||----------------------|----------------------|
-------------------*||----------------------|----------------------|
--3----------------*||--3----3------3----3--|--3------x------------|
--3-----------------||--3----3------3----3--|--3------x--3----4----|
--1-----------------||--1----1------1----1--|--1------x--1----2----|


                                                                              
-------3--3------3----|------------------------------|-------1--1----1--1----|
-------3--3------3----|------------------------------|-------1--1----1--1----|
----------------------|------------------------------|-----------------------|
--5-------------------|------------------------------|--3--------------------|
--5-------------------|---------------------1--------|--3--------------------|
--3-------------------|------6------8/---3-----3--2--|--1--------------------|


                                                                            
---------------------|-------3--3------3----|------------------------------|
---------------------|-------3--3------3----|------------------------------|
---------------------|----------------------|------------------------------|
---------------------|--5-------------------|------------------------------|
--------x--3----4----|--5-------------------|---------------------1--------|
--------x--1----2----|--3-------------------|------6------8/---3-----3--2--|


                                                                  
-------1--1----1--1----|------------------|----------------------|
-------1--1----1--1----|------------------|----------------------|
-----------------------|------------------|--3------3----3-------|
--3--------------------|------------------|--3------3-------3----|
--3--------------------|------------------|--1------1------------|
--1--------------------|------------------|----------------------|


                                                                     
---------1------------|----------------------|----------------------|
---------1------------|---------4------------|---------3------------|
---------2----2-------|---------5----5-------|---------4----4-------|
---------3-------3----|-----------------5----|-----------------5----|
----------------------|--3-------------------|----------------------|
--1-------------------|----------------------|--3-------------------|


                                                                      
----------------------|----------------------|-----------------------|
---------8------------|---------6------------|-------x--1------------|
--------------8-------|--------------7-------|-------x--2------------|
-----------------8----|----------------8-----|-----------------3--3--|
--6-------------------|----------------------|-----------------3--3--|
----------------------|--6-------------------|--1--------------------|


                                                                
-------------------|---------1-----------|---------------------|
-------------------|---------1-----------|---------------------|
-------------------|----------------3----|---------------------|
-------------------|---------------------|--3----3----3--------|
--------------x----|--8------------------|--3----3----3--------|
-------------------|--6------------------|--1----1----1--------|


                                                                    
---------3------------|---------------------|---------6----6-------|
---------4------------|----------3----------|---------6----6-------|
--------------5-------|----------4----------|-----------------8----|
--5--------------5----|-------5-------------|-----------------8----|
--3-------------------|--5------------------|--6-------------------|
----------------------|--3------------------|----------------------|


                                                                    
----------------------|---------1-----------|----------------------|
----------------------|---------1-----------|----------------------|
---------7------------|---------------------|----------------------|
---------8----8--8----|--3-----------3------|-------3----3----x----|
---------8----8--8----|--3-----------3------|----x--3----3----x----|
--6------6------------|--1-----------1------|----x--1----1----x----|


                                                               
--------------------|--------------------|---------3----------|
--------------------|--------------------|---------4----------|
--------------------|--------------------|--------------------|
--3--------3--------|--------------------|--5-----------------|
--1--------1--------|--3--------3--------|--3-----------------|
--------------------|--1--------1--------|--------------------|


                                                               
--------------------|---------6----------|---------6----------|
--------------------|---------6----------|---------6----------|
--------------------|--------------------|--------------------|
--------------------|--8-----------------|--------------------|
--5--------5--------|--6-----------------|--8-----------------|
--3--------3--------|--------------------|--6-----------------|


                                                                
---------1------1--1--|-------------------|--------------------|
---------1------1--1--|-------------------|--------------------|
----------------------|-------------------|--------------------|
--3-------------------|--3----------------|--3--------3--------|
--3-------------------|--3----------------|--1--------1--------|
--1-------------------|--1----------------|--------------------|


                                                               
--------------------|---------3----------|--------------------|
--------------------|---------4----------|--------------------|
--------------------|--------------------|--------------------|
--------------------|--5-----------------|--------------------|
--3--------3--------|--3-----------------|--5--------5--------|
--1--------1--------|--------------------|--3--------3--------|


                                                                 
---------6----6------|---------6----------|---------------------|
---------6----6------|--------------------|---------------------|
---------------------|--------------------|---------------------|
--8------------------|--------------------|--3------3------3----|
--6------------------|--8-----------------|--3------3------3----|
---------------------|--6-----------------|--1------1------1----|


                                                             
------------------||---6-----------------|------------------|
------------------||---6-----------------|------------------|
------------------||*--7--7--------------|------------------|
------------------||*--8--8--------------|------------------|
------------------||---8--8--------------|------------------|
------------------||---6-----------------|------------------|


                                                                       
-----3----3--3--3------|----------------------|-----------------------|
-----1----1--1--1------|----------------------|-----------------------|
--0--------------------|----------------------|--8--8----8--8--8------|
-----------------------|--5--5----5--5--------|--8--8----8--8--8------|
-----------------------|--5--5----5--5--------|--6--6----6--6--6------|
-----------------------|--3--3----3--3--------|-----------------------|


                                                                     
----------------------|----------------------|---------------------||
----------------------|----------------------|---------------------||
----------------------|----------------------|--------------------*||
--8--8----8--8--------|--3----3------3----3--|--3--------x--------*||
--8--8----8--8--------|--3----3------3----3--|--3--------x---------||
--6--6----6--6--------|--1----1------1----1--|--1--------x---------||


                                                                     
----------------------|----------------------|-------3--3------3----|
----------------------|----------------------|-------3--3------3----|
----------------------|----------------------|----------------------|
--3----3------3----3--|--3------x------------|--5-------------------|
--3----3------3----3--|--3------x--3----4----|--5-------------------|
--1----1------1----1--|--1------x--1----2----|--3-------------------|


                                                                             
------------------------------|-------1--1----1--1----|---------------------|
------------------------------|-------1--1----1--1----|---------------------|
------------------------------|-----------------------|---------------------|
------------------------------|--3--------------------|---------------------|
---------------------1--------|--3--------------------|--------x--3----4----|
------6------8/---3-----3--2--|--1--------------------|--------x--1----2----|


                                                                              
-------3--3------3----|------------------------------|-------1--1----1--1----|
-------3--3------3----|------------------------------|-------1--1----1--1----|
----------------------|------------------------------|-----------------------|
--5-------------------|------------------------------|--3--------------------|
--5-------------------|---------------------1--------|--3--------------------|
--3-------------------|------6------8/---3-----3--2--|--1--------------------|


                                                                              
----------------------|-----------------------|------------------------------|
----------------------|------------3--3----1--|------------------------------|
----------------------|------------3--3----2--|------------------------------|
----------------------|------------3--3----3--|------3--3h-5h-3--5--3--0-----|
-------------------1--|----1-------1--1----3--|---------------------------1--|
----------1--2--3-----|-------3------------1--|------------------------------|


                                                                       
------------3--3----3--|------------------------|---------------------|
------------4--4----3--|------------------------|---------------------|
------------5--5----4--|------------------------|--8--------8---------|
------------5--5----5--|------------------------|--8--------8---------|
-------3----3--3----5--|-------------1-----5----|--6--------6------x--|
--3-----------------3--|----1--2--3-----1-------|------------------x--|


                                                                         
-------------------------|----------------------|-----------------------|
-------------------------|----------------------|-----------------------|
-------------------------|----------------------|-----------------------|
--------------8----x--x--|--3----3------3----3--|--3--------------------|
--------------8----x--x--|--3----3------3----3--|--3-----------------1--|
--5/---6------6----x--x--|--1----1------1----1--|--1--------1--2--3-----|


                                                                               
-----------------------|------------------------------|------------3--3----3--|
------------3--3----1--|------------------------------|------------4--4----3--|
------------3--3----2--|------------------------------|------------5--5----4--|
------------3--3----3--|------3--3h-5h-3--5--3--0-----|------------5--5----5--|
----1-------1--1----3--|---------------------------1--|-------3----3--3----5--|
-------3------------1--|------------------------------|--3-----------------3--|


                                                                        
-----------------------|---------------------|-------------------------|
-----------------------|---------------------|-------------------------|
-----------------------|--8--------8---------|-------------------------|
-----------------------|--8--------8---------|--------------8----x--x--|
-------------1----5----|--6--------6------x--|--------------8----x--x--|
----1--2--3-------3----|------------------x--|--4/---6------6----x--x--|


                                                                  
----------------------|---------------------|---------1----------|
----------------------|---------------------|---------1----------|
----------------------|--------------2------|--3-----------------|
--3----3------3----3--|--3--------x--3------|--3-----------------|
--3----3------3----3--|--3--------x---------|--1-----------------|
--1----1------1----1--|--1--------x---------|--------------------|


                                                               
--------------------|--------------------|--------------------|
--------------------|--------------------|--------------------|
--------------------|--5------5----------|--------------------|
--3------3----------|--5------5----------|--5------5----------|
--3------3----------|--3------3----------|--5------5----------|
--1------1----------|--------------------|--3------3----------|


                                                                  
--------------------|--------6------------|----------------------|
--------------------|-----x---------------|----------------------|
--8------8----------|---------------------|----------------------|
--8------8----------|--8------------------|--3----3----3----3----|
--6------6----------|--8------------------|--3----3----3----3----|
--------------------|--6------------------|--1----1----1----1----|


                                                                     
--------------------------|---------1----------|--------------------|
--------------------------|---------1----------|--------------------|
--------------------------|--3-----------------|--------------------|
--3--3--3--3--3--3--3--3--|--3-----------------|--3------3----------|
--3--3--3--3--3--3--3--3--|--1-----------------|--3------3----------|
--1--1--1--1--1--1--1--1--|--------------------|--1------1----------|


                                                               
--------------------|--------------------|--------------------|
--------------------|--------------------|--------------------|
--5------5----------|--------------------|--8------8----------|
--5------5----------|--5------5----------|--8------8----------|
--3------3----------|--5------5----------|--6------6----------|
--------------------|--3------3----------|--------------------|


                                                            
-------------------|-------------------|-------------------|
-------------------|-------------------|-------------------|
-------------------|-------------------|-------------------|
--8----------------|--3----------------|-------------------|
--8----------------|--3----------------|----------------1--|
--6----------------|--1----------------|-------------------|


                                                                               
-----------------------|------------------------------|------------3--3----3--|
------------3--3----1--|------------------------------|------------4--4----3--|
------------3--3----2--|------------------------------|------------5--5----4--|
------------3--3----3--|------3--3h-5h-3--5--3--0-----|------------5--5----5--|
----1-------1--1----3--|---------------------------1--|-------3----3--3----5--|
-------3------------1--|------------------------------|--3-----------------3--|


                                                                         
------------------------|---------------------|-------------------------|
------------------------|---------------------|-------------------------|
------------------------|--8--------8---------|-------------------------|
------------------------|--8--------8---------|--------------8----x--x--|
-------------1-----5----|--6--------6------x--|--------------8----x--x--|
----1--2--3-----1-------|------------------x--|--5/---6------6----x--x--|


                                                                  
----------------------|-----------------------|------------------|
----------------------|-----------------------|------------------|
----------------------|-----------------------|------------------|
--3----3------3----3--|--3--------------------|------------------|
--3----3------3----3--|--3-----------------1--|------------------|
--1----1------1----1--|--1--------1--2--3-----|------------------|


Текст, аккорды и табулатура для песни "The General", исполняет "Dispatch".
Используемые в песне аккорды можно найти в разделе Как брать аккорды. Аккорды для шестиструнной гитары. Другие песни можно найти на нашем сайте, воспользовавшись алфавитным указателем вверху страницы.


Слушать онлайн The General


DispatchThe General на Яндекс.Музыке


 
Ошибка в тексте? Выделите ошибку и нажмите Ctrl+Enter