DISPATCH: Out Loud

tabbed by Mike Burton, [email protected], edited by emily 

h-Hammer on
p-pull off
/-slide up
-slide down
bh-bend half step
bw-bend whole step
pb-pre bend
r-release bend


INTRO:
e-----X-----------X------------X-----------X--
B-----X-----------X------------X-----------X--
G-----X-----------X------------X-----------X--
D-----X-----------X------------X-----------X--
A--7--X--4--4--4--X---------7--X--4--4--4--X--
E--5--X--2--2--2--X--0h2/5--5--X--2--2--2--X--

e------------X-----------X-----------X
B------------X-----------X-----------X
G------------X-----------X-----7--9--X
D------------X-----------X--7--7--9--X
A---------7--X--4--4--4--X--7--5--7--X
E--0h2/5--5--X--2--2--2--X--5--------X
 
Verse #1:
e-------------------------------------------
B-------------------------------------------
G-------------------------------------------
D--7--X--4--4--4--X---------7--X--4--4--4--X
A--7--X--4--4--4--X---------7--X--4--4--4--X
E--5--X--2--2--2--X--0h2/5--5--X--2--2--2--X

e-------------------------------------------------
B-------------------------------------------------
G-------------------------------------------------
D---------7--X--4--4--4--X--------7--7--4--4--4-----
A---------7--X--4--4--4--X--------7--7--4--4--4-----
E--0h2/5--5--X--2--2--2--X--0--2--5--5--2--2--2-----

e--------------------------------------------------
B--------------------------------------------------
G--------------------------------------------------
D---------7--X--4--4--4--X---------7--X--4--4--4--X
A---------7--X--4--4--4--X---------7--X--4--4--4--X
E--0h2/5--5--X--2--2--2--X--0h2/5--5--X--2--2--2--X

e------------------
B------------------
G-----X-----7--9--X
D--7--X--7--7--9--X
A--7--X--7--5--7--X
E--5--X--5--------X

Chorus:
e---------------------------------------------
B---------------------------------------------
G--7--X--9--------------------------7--X--9---
D--7--X--9--X-----7--X--4--4--4--X--7--X--9--X
A--5--X--7--X-----7--X--4--4--4--X--5--X--7--X
E-----------X--5--5--X--2--2--2--X-----------X

e------------------------------------------------
B------------------------------------------------
G--------------------7--X--9---------------------
D--4--X--4--4--4--4--7--X--9--X--7--7--X--4--4--4
A--4--X--4--4--4--4--5--X--7--X--7--7--X--4--4--4
E--2--2--0--2--0--2-----------X--5--5--X--2--2--2

e-----------
B-----------
G-----7--9--
D--X--7--9--
A--X--5--7--
E--X--------

Post-chorus: play similar to intro but little muting

Verse #1: once

Chorus:

Post-chorus: same as previous post-chorus but using full bar chords instead of
power chords (see what they look like below):
e--5--2------
B--5--2--7--9
G--6--2--7--9
D--7--4--7--9
A--7--4--5--7
E--5--2------

Verse #1: using the full bar chords for that fuller sound

Chorus:

Pre-Ending: play a total of six times!
e-----5-----------2
B-----5-----------2
G-----6-----------2
D--7-----4--4--4--4
A--7-----4--4--4--4
E--5-----2--2--2--2

Ending:
e---------
B---------
G--7--9---
D--7--9--7
A--5--7--7
E--------5

lyrics

would you be the wind to blow me home
would you be a dream on the wings of poem
and if we were walking through a crowd
well you know i'd be proud

if you'd call my name out loud
if you'd call my name out loud
do you suppose that i would come running
do you suppose i'd come at all
i suppose i would

and if we were walking down a dead end street
would you be the one to let our eyes meet
or would you just keep on walking down to the turnaround
cause you know i'd be proud

if you'd call my name out loud
if you'd call my mame out loud
do you suppose that i would come running
do you suppose i'd come at all
i suppose i would

and if i was gone from the land we know
would you be the dawn let your beauty still show
and if you were walking heard the cold night coming
would you call my name cause you know i'd come running

if you'd call my name out loud
if you'd call my name out loud
do you suppose that i would come running
do you suppose i'd come at all
you know i would
you know i would
you know i would
you know i would
i'd come running
i'd come running
if you called my name out loud


Текст, аккорды и табулатура для песни "Out Loud", исполняет "Dispatch".
Используемые в песне аккорды можно найти в разделе Как брать аккорды. Аккорды для шестиструнной гитары. Другие песни можно найти на нашем сайте, воспользовавшись алфавитным указателем вверху страницы.


Слушать онлайн Out Loud


DispatchOut Loud на Яндекс.Музыке


 
Ошибка в тексте? Выделите ошибку и нажмите Ctrl+Enter