Open Up
Dispatch
Tabbed by: David Stanard

e----1-1--1--1-1--1-----1-1--1--1-1--1-
B----2-2--2--1-1--1-----2-2--2--1-1--1-
G----3-3--3--2-2--2-----3-3--3--2-2--2-
D----3-3--3--3-3--3-----3-3--3--3-3--3-
A----1-1--1--3-3--3-----1-1--1--3-3--3-
E------------1-1--1-------------1-1--1-
They were looking for me when I came to
So they took me down to the gallows

e----1-1--1--1-1--1--|--1-1--1--1--1-1-
B----2-2--2--1-1--1--|--2-2--2--1--1-1-
G----3-3--3--2-2--2--|--3-3--3--2--2-2-
D----3-3--3--3-3--3--|--3-3--3--3--3-3-
A----1-1--1--3-3--3--|--1-1--1--3--3-3-
E------------1-1--1--|----------1--1-1-
They were looking for me when I came back
And this boy he said to me (don’t play 2nd half)

e----1-1--1--1-1--1-----1-1--1--1-1--1-
B----2-2--2--1-1--1-----2-2--2--1-1--1-
G----3-3--3--2-2--2-----3-3--3--2-2--2-
D----3-3--3--3-3--3-----3-3--3--3-3--3-
A----1-1--1--3-3--3-----1-1--1--3-3--3-
E------------1-1--1-------------1-1--1-
Said hey you, you're looking very suspicious
Why do you smile when the rope's around your neck

e----1--2----1--1------1--1--1--
B----2--2----1--1------2--2--2--
G----3--3----2--2------3--3--3--
D----3--3----3--3------3--3--3--
A----1--1----3--3------1--1--1--
E------------1--1---------------
I said relax man get off my back
I said I tell you boy when I get back

e----1--1-1--1--1-1----1--1-1--1-1-
B----2--2-2--1--1-1----2--2-2--1-1-
G----3--3-3--2--2-2----3--3-3--2-2-
D----3--3-3--3--3-3----3--3-3--3-3-
A----1--1-1--3--3-3----1--1-1--3-3-
E------------1--1-1------------1-1-
I said relax man get off my back
I said I tell you boy when I get back

e----2-2--2--4-4--4--1-1--1--1-1--1--
B----2-2--2--4-4--4--2-2--2--2-2--2--
G----3-3--3--5-5--5--3-3--3--3-3--3--
D----4-4--4--6-6--6--3-3--3--3-3--3--
A----4-4--4--6-6--6--1-1--1--1-1--1--
E----2-2--2--4-4--4------------------
I, I, I ain't opposed to seeking justice
I, I, I ain’t opposed to seeking justice

e----2-2--2--4-4--4--1-1--1---1------
B----2-2--2--4-4--4--2-2--2---1------
G----3-3--3--5-5--5--3-3--3---2------
D----4-4--4--6-6--6--3-3--3---3------
A----4-4--4--6-6--6--1-1--1---3------
E----2-2--2--4-4--4-----------1------
But you're going about it all wrong
I said I tell you boy when I get back

e----2-2--2--4-4--4--1-1--1--1-1--1--
B----2-2--2--4-4--4--2-2--2--2-2--2--
G----3-3--3--5-5--5--3-3--3--3-3--3--
D----4-4--4--6-6--6--3-3--3--3-3--3--
A----4-4--4--6-6--6--1-1--1--1-1--1--
E----2-2--2--4-4--4------------------
The man you're looking for does not exist
The man you're looking for does not exist

e----2-2--2--4-4--4--1-1--1-1---1----
B----2-2--2--4-4--4--2-2--2-2---2----
G----3-3--3--5-5--5--3-3--3-3---3----
D----4-4--4--6-6--6--3-3--3-3---3----
A----4-4--4--6-6--6--1-1--1-1---1----
E----2-2--2--4-4--4------------------ (x2 second time)
He's just a figment of the higher man's tongue
He's just a figment of the higher man's tongue
He's just a victim of the higher man's tongue

And they say...

e----4-4-4---4-4-4-------------------
B----6-6-6---4-4-4-------------------
G----6-6-6---5-5-5-------------------
D----6-6-6---6-6-6-------------------
A----4-4-4---6-6-6-------------------
E------------4-4-4-------------------
Open up we're coming inside

e----1-1--1---2-2--2-----------------
B----2-2--2---2-2--2-----------------
G----3-3--3---3-3--3-----------------
D----3-3--3---4-4--4-----------------
A----1-1--1---4-4--4-----------------
E-------------2-2--2-----------------
You can't run so you may as well hide

e----4-4-4---4-4-4---1-1--1---------22-2-11-1----
B----6-6-6---4-4-4---2-2--2---------22-2-11-1----
G----6-6-6---5-5-5---3-3--3---------33-3-22-2----
D----6-6-6---6-6-6---3-3--3---------44-4-33-3----
A----4-4-4---6-6-6---1-1--1---------44-4-33-3----
E------------4-4-4------------------22-2-11-1----
We got the place covered from head to toe, head to toe

e----4-4--4---4-4--4-----------------
B----6-6--6---4-4--4-----------------
G----6-6--6---5-5--5-----------------
D----6-6--6---6-6--6-----------------
A----4-4--4---6-6--6-----------------
E-------------4-4--4-----------------
Open up we're coming inside

e----1-1--1---2-2--2-----------------
B----2-2--2---2-2--2-----------------
G----3-3--3---3-3--3-----------------
D----3-3--3---4-4--4-----------------
A----1-1--1---4-4--4-----------------
E-------------2-2--2-----------------
What's it feel like to know you're going to die

e----4-4--4---4-4--4-----------------
B----6-6--6---4-4--4-----------------
G----6-6--6---5-5--5-----------------
D----6-6--6---6-6--6-----------------
A----4-4--4---6-6--6-----------------
E-------------4-4--4-----------------
On the other side of the row

e----1-1--1---2-2--2-----------------
B----2-2--2---2-2--2-----------------
G----3-3--3---3-3--3-----------------
D----3-3--3---4-4--4-----------------
A----1-1--1---4-4--4-----------------
E-------------2-2--2-----------------
On the other side of the row

e----4-4--4---4-4--4-----1-----------
B----6-6--6---4-4--4-----1-----------
G----6-6--6---5-5--5-----2-----------
D----6-6--6---6-6--6-----3-----------
A----4-4--4---6-6--6-----3-----------
E-------------4-4--4-----1-----------
On the other side of the row

Solo
e--------------------------------------------------
B--------------------------------------------------
G--------------------------------------------------
D-----6--3--------6--3-----------1-------1---------
A--4--------4--------------1--4-------------4--1---
E--------------4--------4----------2--2------------

e-----------------------------------2--1-----------
B-----------------------------------2--1-----------
G-----------------------------------3--2-----------
D-----6--3--------6--3-----------1--4--3-----------
A--4--------4--------------1--4-----4--3-----------
E--------------4--------4-----------2--1-----------

e--------------------------------------------------
B--------------------------------------------------
G--------------------------------------------------
D-----6--3--------6--3-----------1--------1--------
A--4--------4--------------1--4--------------4--1--
E--------------4--------4-----------2--2-----------

e--4--6---8---9/114---
B--6--7---9--11/136---
G--6--8--10--11/136---
D--6--8--10--11/136---
A--4--6---8---9/114---
E----------------------

e--1-------------------1--------------
B--1-------------------1--------------
G--2-------------------2--------------
D--3-------------------3--------------
A--3-------------------3--------------
E--1-------------------1--------------
Hands above your head, Que le via bien

e----1---------1---------1/2----------
B----1---------1---------1/2----------
G----2---------2---------2/3----------
D----3---------3---------3/4----------
A----3---------3---------3/4----------
E----1---------1---------1/2----------
Step out of line and we'll fill you with lead

e----4------4-------1-------2-----
B----6------4-------2-------2-----
G----6------5-------3-------3-----
D----6------6-------3-------4-----
A----4------6-------1-------4-----
E-----------4---------------2-----
How are we to know that you are not a liar, heyeyey,

e----4--------------4-------------
B----6--------------4-------------
G----6--------------5-------------
D----6--------------6-------------
A----4--------------6-------------
E-------------------4-------------
Don't you see we have a job to do

e----1------------------22-2-11-1-
B----2------------------22-2-11-1-
G----3------------------33-3-22-2-
D----3------------------44-4-33-3-
A----1------------------44-4-33-3-
E----1------------------22-2-11-1-
And our job is the law, job is the law

e----4------4-------1-------2-----
B----6------4-------2-------2-----
G----6------5-------3-------3-----
D----6------6-------3-------4-----
A----4------6-------1-------4-----
E-----------4---------------2-----
You fit the description of a criminal crosser, heyeyey,

e----4----------4---------1-------
B----6----------4---------2-------
G----6----------5---------3-------
D----6----------6---------3-------
A----4----------6---------1-------
E---------------4-----------------
We believe that he is you and that is your flaw

e----2--------------4-------------
B----2--------------6-------------
G----3--------------6-------------
D----4--------------6-------------
A----4--------------4-------------
E----2----------------------------
That is your flaw, that is your flaw

e----4--------------1-------------
B----4--------------1-------------
G----5--------------2-------------
D----6--------------3-------------
A----6--------------3-------------
E----4--------------1-------------
That is your flaw, that is your flaw

And they say...

e----4----------------------------
B----6----------------------------
G----6----------------------------
D----6----------------------------
A----4----------------------------
E---------------------------------
Open up we're coming inside

e----1----------------------------
B----2----------------------------
G----3----------------------------
D----3----------------------------
A----1----------------------------
E---------------------------------
You can't run so you may as well hide

e----4--------------------1---------2-22—-1-11------
B----6--------------------2---------2-22--1-11------
G----6--------------------3---------3-33--2-22------
D----6--------------------3---------4-44--3-33------
A----4--------------------1---------4-44--3-33------
E-----------------------------------2-22--1-11------
We got the place covered from head to toe, head to toe

e----4-4-4---4-4-4-------------------
B----6-6-6---4-4-4-------------------
G----6-6-6---5-5-5-------------------
D----6-6-6---6-6-6-------------------
A----4-4-4---6-6-6-------------------
E------------4-4-4-------------------
Open up we're coming inside

e----1-1--1---2-2--2-----------------
B----2-2--2---2-2--2-----------------
G----3-3--3---3-3--3-----------------
D----3-3--3---4-4--4-----------------
A----1-1--1---4-4--4-----------------
E-------------2-2--2-----------------
What's it feel like to know you're gonna die?

e----4-4--4---4-4--4-----------------
B----6-6--6---4-4--4-----------------
G----6-6--6---5-5--5-----------------
D----6-6--6---6-6--6-----------------
A----4-4--4---6-6--6-----------------
E-------------4-4--4-----------------
On the other side of the road

e----1-1--1---2-2--2-----------------
B----2-2--2---2-2--2-----------------
G----3-3--3---3-3--3-----------------
D----3-3--3---4-4--4-----------------
A----1-1--1---4-4--4-----------------
E-------------2-2--2-----------------
On the other side of the road

e----4-4--4---4-4--4-----------------
B----6-6--6---4-4--4-----------------
G----6-6--6---5-5--5-----------------
D----6-6--6---6-6--6-----------------
A----4-4--4---6-6--6-----------------
E-------------4-4--4-----------------
On the other side of the road

e----1-1--1---4--6---8-----9/11------
B----2-2--2---6--7---9----11/13------
G----3-3--3---6--8--10----11/13------
D----3-3--3---6--8--10----11/13------
A----1-1--1---4--6---8-----9/11------
E------------------------------------
On the other side of the road

(Outro)
e--4--4--1--2--4--4--1--2--1--4--4--1--2--
B--6--4--2--2--6--4--2--2--1--6--4--2--2--
G--6--5--3--3--6--5--3--3--2--6--5--3--3--
D--6--6--3--4--6--6--3--4--3--6--6--3--4--
A--4--6--1--4--4--6--1--4--3--4--6--1--4--
E-----4-----2-----4-----2--1-----4-----2—

e--4--4--1--2--4--4--1
B--6--4--2--2--6--4--1
G--6--5--3--3--6--5--2
D--6--6--3--4--6--6--3
A--4--6--1--4--4--6--3
E-----4-----2-----4--1

Verse1
Chorus
Verse2
Chorus
Solo
Long Bridge
Outro


Текст, аккорды и табулатура для песни "Open Up", исполняет "Dispatch".
Используемые в песне аккорды можно найти в разделе Как брать аккорды. Аккорды для шестиструнной гитары. Другие песни можно найти на нашем сайте, воспользовавшись алфавитным указателем вверху страницы.


 
Ошибка в тексте? Выделите ошибку и нажмите Ctrl+Enter