Song:   The General
Artist: Dispatch
Tabbed by: Daniel Alloway ([email protected])

*******Key*******
 / = Slide Up
  = Slide Down
 x = Palm Mute
 h = Hammer On
 p = Pull Off
*****************

It's sort of a swingy rythem!

Intro>          B B   F#                   C#m-- G#
-|--------------2-2-x-2------------------x-4-444-4--|
-|--------------4-4-x-2------------------x-5-555-4--|
-|--------------4-4-x-3------------------x-6-666-5--|
-|--------------4-4-x-4--4-4h5p4---------x-6-666-6--|
-|------1-1-----2-2-x-4----------6-4-----x-4-444-6--|
-|-2h3h4----4-2-2-2-x-2--------------7-4-x-4-444-4--|
                d u d u                  d u dud u

               E E  E   B       F#--------------------|F#
-|------------/7-7-x7---7------2-2-x2x2-2------------| make the E chord
-|-----------/-8-8-x8---7------2-2-x2x2-2------------| at the beginning
-|----------/--9-9-x9---8------3-3-x3x3-3------------| of the slide,
-|---------/---9-9-x9---9------4-4-x4x4-4------------| and slide it up
-|-----4--/----7-7-x7---9------4-4-x4x4-4------------| listen to song
-|-4-7---/-----7-7-x7-7-7------2-2-x2x2-2------------| for a reference.
         slide^  d du   d       d d dudu d


Текст, аккорды и табулатура для песни "General", исполняет "Dispatch".
Используемые в песне аккорды можно найти в разделе Как брать аккорды. Аккорды для шестиструнной гитары. Другие песни можно найти на нашем сайте, воспользовавшись алфавитным указателем вверху страницы.


Слушать онлайн The General


DispatchThe General на Яндекс.Музыке


 
Ошибка в тексте? Выделите ошибку и нажмите Ctrl+Enter