Artist: Dishwalla
Song: Counting Blue Cars  
Album: Pet Your Friends 
Tuning: E A D G B E (low to high)
Tab by: Alex Key [email protected]


Intro

E|---0---|---0---|---0---|-0--0--0--0-0--0-0---0-0-0-|
B|---0---|---0---|---0---|-0--0--0--0-0--0-0---0-0-0-|
G|---4---|---9---|---7---|-7--7--7--7-7--7-7/9-9-9-9-|
D|---4---|---9---|---7---|-7--7--7--7-7--7-7/9-9-9-9-|
A|---2---|---7---|---5---|-5--5--5--5-5--5-5/7-7-7-7-|
E|-------|-------|-------|---------------------------|


Verse 1

E|-----------------|-----|-----|-----|-----|-----|-----|
B|-----------------|-----|-----|-----|-----|-----|-----|
G|-4---------------|-----|-----|-----|-----|-----|-----|
D|-4---------------|-----|-----|-----|-----|-----|-----|
A|-2---------------|-----|-----|-----|-----|-----|-----|
E|-----------------|-----|-----|-----|-----|-----|-----|

E|-----|-000-------------|--0--|--0--|--0--|--0--|--0--|
B|-----|-000-------------|--0--|--0--|--0--|--0--|--0--|
G|-----|-444-------------|--9--|--7--|--7--|--4--|--9--|
D|-----|-444-------------|--9--|--7--|--7--|--4--|--9--|
A|-----|-222-------------|--7--|--5--|--5--|--2--|--7--|
E|-----|-----------------|-----|-----|-----|-----|-----|


Chorus

E|-------|-------|--------|--------|
B|-------|-------|--------|--------|
G|---7---|---9---|---12---|---12---|
D|---7---|---9---|---12---|---12---|
A|---5---|---7---|---10---|---10---|
E|-------|-------|--------|--------|


Verse 2

E|-0---------------|----|----|----|----|---------------|
B|-0---------------|----|----|----|----|---------------|
G|-4---------------|----|----|----|----|---9-----------|
D|-4---------------|----|----|----|----|-9---11~b~r~b~r|
A|-2---------------|----|----|----|----|---------------|
E|-----------------|----|----|----|----|---------------|

E|-----------------|-----|-----|--0--|--0--|--0--|--0--|
B|-----------------|-----|-----|--0--|--0--|--0--|--0--|
G|-----------------|-----|-----|--4--/--9--|--7--|--7--|
D|9------------(9)7-(7)5----|--4--/--9--|--7--|--7--|
A|-----------------|-----|-----|--2--/--7--|--5--|--5--|
E|-----------------|-----|-----|-----|-----|-----|-----|

E|--0--|--0--|-----|-----|
B|--0--|--0--|-----|-----|
G|--4--/--9--|-----|-----|
D|--4--/--9--|-----|-----|
A|--2--/--7--|-----|-----|
E|-----|-----|-----|-----|


Solo

E|-----------------------------------------------------------|
B|-------------------12--10----------12--10----10-----12--10-|
G|---------------7------7--------7------7---------7-77---7---|
D|-----------7-9---------------------------------------------|
A|-----5-7/9-------------------------------------------------|
E|-5-7-------------------------------------------------------|

E|-----------------------------------------------------------|
B|-----------------------------12--10---7h8p7-7----12--10----|
G|------11b~r-9------------7------7----------9-7------7------|
D|--------------11b~~r-97-----------------------------------|
A|-----------------------------------------------------------|
E|-----------------------------------------------------------|

E|------------------------------------|
B|-----12--10-------------------------|
G|-7-77---7------11b~r-9--------------|
D|-----------------------11b~~r~b~r~b-|
A|------------------------------------|
E|------------------------------------|


Verse 3

E|-0--------------|-0--------------|-3--------------|-----|
B|-0--------------|-0--------------|-3--------------|-----|
G|-4--------------|-2--------------|-0--------------|-----|
D|-4--------------|-2--------------|-0--------------|-----|
A|-2--------------|-0--------------|-x--------------|-----|
E|----------------|----------------|-3--------------|-----|

E|-0--------------|-0--------------|-0--------------|-----|
B|-0--------------|-0--------------|-0--------------|-----|
G|-4--------------|-2--------------|-0--------------|-----|
D|-4--------------|-2--------------|-0--------------|-----|
A|-2--------------|-0--------------|-x--------------|-----|
E|----------------|----------------|-3--------------|-----|

E|-0--------------|-0--------------|-3--------------|-----|
B|-0--------------|-0--------------|-3--------------|-----|
G|-4--------------|-2--------------|-0--------------|-----|
D|-4--------------|-2--------------|-0--------------|-----|
A|-2--------------|-0--------------|-x--------------|-----|
E|----------------|----------------|-3--------------|-----|

E|-0--------------|-0--------------|-0--------------|-----|
B|-0--------------|-0--------------|-0--------------|-----|
G|-4--------------|-2--------------|-0--------------|-----|
D|-4--------------|-2--------------|-0--------------|-----|
A|-2--------------|-0--------------|-x--------------|-----|
E|----------------|----------------|-3--------------|-----|


Outro

E|-----------------------------------------------------------|
B|--------12----10-----10--10---------12----10------10--10---|
G|-7---7---7--7---------7---7--7--7-7-----7--7-------7---7--7|
D|-----------------------------------------------------------|
A|-----------------------------------------------------------|
E|-----------------------------------------------------------|

E|-----------------------------------------------------------|
B|--------12----1010101010-----------------------------------|
G|----7-------7--7-7-7-7-7-11b~~~r--9------------------7---7-|
D|-------------------------------------11b~~~~r--97---------|
A|-----------------------------------------------------------|
E|-----------------------------------------------------------|

E|-----------------------------------------------------------|
B|-1212--10----10--10--10----------1212--10----10--101010----|
G|--7-7-7-7-----7---7---7--7---7----7-7-7-7-----7---7-7-7--7-|
D|-----------------------------------------------------------|
A|-----------------------------------------------------------|
E|-----------------------------------------------------------|

E|-----------------------------------------------------------|
B|------1212--10----1010-10101010--10101010101010-10101010-10|
G|--7----7-7-7-7-----7-7--7-7-7-7---9-9-9-9-9-9-9--9-9-9-9--9|
D|-----------------------------------------------------------|
A|-----------------------------------------------------------|
E|-----------------------------------------------------------|

E|-----------------------------------------------------------|
B|101010---------12----10----10--10--1010--------1212--10----|
G|-9-7-7-7---7----7---7-7-----7---7---7-7-7---7---7-7-7-7----|
D|-----------------------------------------------------------|
A|-----------------------------------------------------------|
E|-----------------------------------------------------------|

E|-----------------------------------------------------------|
B|10--10101010-----------7-7--10---10---10101010101010101010-|
G|-7---7-7-7-7--7---7----7-7-7-7----7----7-7-7-7-7-7-7-7-7-7-|
D|-----------------------------------------------------------|
A|-----------------------------------------------------------|
E|-----------------------------------------------------------|

E|------------------------------|
B|------------------------------|
G|------------------------------|
D|-11~~~~b~~~~r~~~b~~~r~~~b~~r--|
A|------------------------------|
E|------------------------------|


Текст, аккорды и табулатура для песни "Counting Blue Cars", исполняет "Dishwalla".
Используемые в песне аккорды можно найти в разделе Как брать аккорды. Аккорды для шестиструнной гитары. Другие песни можно найти на нашем сайте, воспользовавшись алфавитным указателем вверху страницы.


 
Ошибка в тексте? Выделите ошибку и нажмите Ctrl+Enter