Money For Nothing - Dire Straits
 
 Here we go - here`s my version of the intro to Money For Nothing,
 Not so scarey after all is it ?
 
 +----------------------------------------------------------------------------+
 6----------------------------------------------------------------|
 |--7-7-5--7-5-7-5-3-3-0----7-7--3>s>5---0--3>s>5 5 5>s>3 0-------------------|
 |--5-5-5--5---5-5-5-5-5----5-5--3>s>5---0--3>s>5 5 5>s>3 0-------------------|
 -----------------------------------------------------------------|
 +----------------------------------------------------------------------------+
 
 +----------------------------------------------------------------------------+
 --8--------------------------------------------------------------|
 |--7-7-5--5-7-7-7-5----0--7-7-3>s>5-0----------------------------------------|
 |--5-5-5-8---------8-5-0--5-5-3>s>5-0--3>s>5-5-------------------------------|
 -----------------------------------------------------------------|
 +----------------------------------------------------------------------------+
 
 An alternate ending used in concert down here in oz, ~ 1987 towards the end of
 the song.
 
   --> play as above until-v
 +----------------------------------------------------------------------------+
 -----------------------------------------------------------------|
 --------------3-2------------------------------------------------|
 ------------------3>s>5-5-5>p>3----------------------------------|
 --------------------------------3>h>5-3>h>5----------------------|
 +-------------------------------------------------------6-5-3----------------+


Текст, аккорды и табулатура для песни "Money For Nothing (tab)", исполняет "Dire Straits".
Используемые в песне аккорды можно найти в разделе Как брать аккорды. Аккорды для шестиструнной гитары. Другие песни можно найти на нашем сайте, воспользовавшись алфавитным указателем вверху страницы.


 
Ошибка в тексте? Выделите ошибку и нажмите Ctrl+Enter