Cage Bass Solo
Performed by Toshiya
Tabs written by DarkLordHadez  ‹ћ


G------------------------------2--------------------------------------------
D----------3---5---6-5-3-2-3-------------------3---5-----3-2----------------
A-5-5-3-5---5--------------------3-----5-5-3-5---5------------3-1-0-0-1-3---
E---------------------------------------------------------------------------


G------------------------------2--------------------------5-6-777-----------
D----------3---5---6-5-3-2-3----------------3-5-3-5-6-7-6-------------------
A-5-5-3-5---5--------------------3---5-3-5----------------------------------
E---------------------------------------------------------------------------


G------------------------------2-----------------------77-55-33-22----------
D----------3---5---6-5-3-2-3-------------------3---5------------------------
A-5-5-3-5---5--------------------3-----5-5-3-5---5--------------------------
E---------------------------------------------------------------------------


G------------------------------2--------------------5------7---------------
D----------3---5---6-5-3-2-3-------------22-33-55-----5--7-----------------
A-5-5-3-5---5--------------------3----55-----------------------------------
E--------------------------------------------------------------------------

Notes:  The last four notes of the song are harmonics.  Toshiya really hits these
and makes it sound almost like drum beats.

There is no tune or rhythm in these tabs, so you have to know what the solo
sounds like before you can use these. 

Any additions or other diru tabs you have written, email me at
[email protected]   

~Enjoy~


Текст, аккорды и табулатура для песни "Cage", исполняет "Dir En Grey".
Используемые в песне аккорды можно найти в разделе Как брать аккорды. Аккорды для шестиструнной гитары. Другие песни можно найти на нашем сайте, воспользовавшись алфавитным указателем вверху страницы.


 
Ошибка в тексте? Выделите ошибку и нажмите Ctrl+Enter