DIMMU BORGIR - THE INSIGHT AND THE CATHARSIS
From The album: Spiritual Black Dimensions

Transcribed by: Arto Osterman 28.10.1999
E-mail: [email protected]


Tuning: Standard


Marking:

Palm mute: ...
Mute: m
Let ring: l
Trill: t


Fill 1:

|-------------|
|-------------|
|-------------|
|-------------|
|-7--6--7--6--|
|-5--4--5--4--|
  m  m     m

Riff 1:

|-------|
|-------|
|-------|
|-------|
|-3--2--|
|-1--0--|


Riff 2:

|-----------------|
|-----------------|
|-----------------|
|-----------------|
|-7-7777--6-6666--|
|-5-5555--4-4444--|


Riff 3:

|-----------------|
|-----------------|
|-----------------|
|-----------------|
|-3-3333--2-2222--|
|-1-1111--0-0000--|


Riff 4:

|-------------------------|
|-------------------------|
|-------------------------|
|-------------------------|
|-7777777777--3333333333--|
|-5555555555--1111111111--|


Riff 5:

|--------------------------|
|--------------------------|
|--------------------------|
|-7777777777---------------|
|-5555555555-666666666666--|
|------------444444444444--|


Riff 6:

|--------------|
|--------------|
|--------------|
|-----------5--|
|--4--3--4--3--|
|--2--1--2-----|
   l  l  l  l


Riff 7:

|----------------------------------------------------|
|----------------------------------------------------|
|-------------------------------------------------5--|
|-------------------------------------------------5--|
|-2-444444--7-6--3-3-33-3-33-3-33--4-444444--7-6--3--|
|-2-222222--5-4--1-1-11-1-11-1-11--2-222222--5-4-----|
    ......           ..   ..   ..    ......       l


Riff 8:

|------------------------------------------------------------------|
|------------------------------------------------------------------|
|------------------------------------------------------------------|
|-5-----5----------------------------------------------------------|
|-3--6--3--6--222222222222-666666666666-222222222222-666666666666--|
|----4-----4--000000000000-444444444444-000000000000-444444444444--|
  l  l  l  l  ............ ............ ............ ............


Riff 9:

|-----------------------------------------------------|
|-----------------------------------------------------|
|-----------------------------------------------------|
|--------------------------------------88-8--1212-12--|
|-22-2--33-3--22-2--33-3--22-2--33-3---66-6--1010-10--|
|-00-0--11-1--00-0--11-1--00-0--11-1------------------|
  ..    ..    ..    ..    ..    ..     ..    . .


Play riff 8 under solo.


Riff 10:

|-------------------------------------------------|
|-------------------------------------------------|
|-------------------------------------------------|
|-------------------------------------------------|
|-55-5--66-6--55-5--66-6--55-5--66-6--44-4--88-8--|
|-33-3--44-4--33-3--44-4--33-3--44-4--22-2--66-6--|
  ..    ..    ..    ..    ..    ..    ..    ..


Fill 2:

|----|
|----|
|----|
|-3--|
|-3--|
|-1--|
  l


Fill 3:

|--------------|
|--------------|
|--12--13--12--|
|--------------|
|--------------|
|--------------|


Riff 11:

|--------------|
|--------------|
|--------------|
|--10-8--3--5--|
|--8--6--1--3--|
|--------------|


Riff 12:

|----------------------------------------------------------|
|----------------------------------------------------------|
|----------------------------------------------------------|
|----------------7------------9-----------9-7--------------|
|-7--10-9--7-6-----10-9-6--7----10-9--7-6-----10-9-7--6t7--|
|----------------------------------------------------------|


Fuckin' Great Riff:

Riff 13:

|------------------------------------------------------------------------|
|------------------------------------------------------------------------|
|------------------------------------------------------------------------|
|--------------------------------------------------------9-7-------------|
|-777-101010-999-777--666-999-777-666--777-101010-999--6----10-9-7--6t7--|
|------------------------------------------------------------------------|


Fill 4:

|-----------|
|-----------|
|-----------|
|-7-7777-5--|
|-5-5555-3--|
|-----------|
  . .... .


Riff 14:

|-------------------|
|-------------------|
|-------------------|
|-7-----5--7-7777-5-|
|-5--5--3--5-5555-3-|
|----3--------------|
  l  l  l  . .... .


Riff 15:

|-----------------------------------------------------------------|
|-----------------------------------------------------------------|
|-----------------------------------------------------------------|
|-7-77-7-77-7777--5-55-5-55-5555----------------------------------|
|-5-55-5-55-5555--3-33-3-33-3333--7-77-7-77-7777--3-33-3-33-3333--|
|---------------------------------5-55-5-55-5555--1-11-1-11-1111--|
    ..   .. ....    ..   .. ....    ..   .. ....    ..   .. ....


Riff 16:

|-----------------|
|-----------------|
|-----------------|
|-7-----5--7-5-7--|
|-5--5--3--5-3-5--|
|----3------------|
  l  l  l  l   l



Song Structure:

Fill 1:         (2x)
Riff 1:         (4x)
Riff 2:         (4x)
Riff 3:         (4x)
Riff 4:         (4x)
Riff 5:         (4x)
Riff 6:         (2x)
Riff 7:         (2x)
Riff 8:         (2x)
Riff 9:         (4x)
Riff 7:         (1x)
Riff 10:        (4x)
Fill 2:         (1x)


Keyboard Section

Fill 3:         (1x)
Riff 11:        (4x)
Riff 12:        (2x)
Riff 13:        (2x)
Riff 12:        (2x)
Fill 1:         (1x)
Riff 3:         (2x)
Riff 2:         (4x)
Riff 3:         (4x)
Riff 4:         (2x)
Riff 5:         (2x)
Riff 4:         (2x)
Riff 5:         (2x)

Keyboard Section

Fill 4:         (1x)
Riff 14:        (4x)
Riff 15:        (4x)
Riff 16:        (4x)

                   >>> ANY CORRECTIONS ARE WELCOME 


Текст, аккорды и табулатура для песни "The Insight And The Catharsis", исполняет "Dimmu Borgir".
Используемые в песне аккорды можно найти в разделе Как брать аккорды. Аккорды для шестиструнной гитары. Другие песни можно найти на нашем сайте, воспользовавшись алфавитным указателем вверху страницы.


 
Ошибка в тексте? Выделите ошибку и нажмите Ctrl+Enter