Dimmu Borgir
Spellbound (by the devil)
Album: Enthrone darkness trimphant
Bozium

I transcribed this tab because I couldn't find one that really match the song.I'm not sure This one is right. I transcribbed from what I could hear in a live version of the song and from the video Spellbound live in dynamo from which I could take and idea of what to play.Any corrections to [email protected]

Intro (00:07 - 00:18)
|------|  X4
|--6---|
|--4---|
|------|

Riff 1 (00:20 - 00:44)
|--------------------------|  x7
|--------------------------|
|--4-444-44-44--5-4-2-4----|
|--------------------------|

After the 7th repetitionin goes:

|-------------------------------|
|-------------------------------|
|-------------------------------|
|-4-444-44-44-5-4-2-5-4-44444---|


Riff 2 (00:44 - 00:55)
|--------------------------|  X6
|--------------------------|
|--------7/6-------6/7-----|
|--0-0-0-----0-0-0---------|

Riff 3 (00:55 - 01:01) 
|----------------------|  x4
|----------------------|
|--------33-2-33333/6--|
|--00000---------------|

Riff 2 (01:01 - 01:07) x4

Riff 4 (01:08 - 01:15) Break with synth
|---|---|---|---|---|---|---|------|
|---|---|---|---|---|---|---|------|
|---|---|---|---|---|---|---|------|
|-4-|-5-|-4-|-5-|-4-|-5-|-4-|-5-5--|

Riff 5 (01:16 - 01:22)
|----------------------------| X4
|----------------------------|
|----------------------------|
|-0-0-0-0-0-0-1-1-1-1-1-1----|

Riff 6 (01:23 - 01:30)
|--------------------------| X4
|--------------------------|
|--------------------------|
|-4-4-4-4-4-4-5-5-5-5-5-5--|

Riff 7 (01:30) Break with synth
|---|---|---|---|---|---|---|------|
|---|---|---|---|---|---|---|------|
|---|---|---|---|---|---|---|------|
|-0-|-1-|-0-|-1-|-0-|-1-|-0-|-1-1--|

Riff 5 (01:37 - 01:43) X4
Riff 6 (01:43 - 01:50) X4

Riff 8 (01:51 - 02:30) Not sure.

In the video he plays something like this but it just doesn't sound
|-------------------|  x12
|------------6--5---|
|--5--3--4----------|
|-------------------|

This is the same riff taken from another tab transcribed by Andre Roy. It sounds better than the one upstairs:
|------------------------------------------|
|------------------------------------------|
|-------------------------------------6--5-|
|-4-4-4-4-4-4-0-0-0-0-0-0-3-3-3-3-3-3------|

Synth part

Riff 9 (02:48 - 04:08)
|------------------------------------------------------------------------|
|------------------------------------------------------------------------|
|-----------------5-3------------3-5----------------------------333-5-3--|
|--5-5-5-5-5-5-5-------3-3-3-3-3------1-1-1-1-1-1-1-1-3-3-3-3-3----------|

|---------------------------------------------------------------------|
|---------------------------------------------------------------------|
|---------------------------------------------------------------------|
|--5-5-5-5-5-5-5-5-3-3-3-3-3-3-3-3-1-1-1-1-1-1-1-1-3-3-3-3-4-4-4-4----|

|------------------------------------------------------------------------|
|------------------------------------------------------------------------|
|-----------------5-3------------3-5----------------------------333-5-3--|
|--5-5-5-5-5-5-5-------3-3-3-3-3------1-1-1-1-1-1-1-1-3-3-3-3-3----------|

|---------------------------------------------------------------------|
|---------------------------------------------------------------------|
|---------------------------------------------------------------------|
|--5-5-5-5-5-5-5-5-3-3-3-3-3-3-3-3-1-1-1-1-1-1-1-1-3-3-3-3-4-4-4-4----|

|---------------------------------------------------|
|---------------------------------------------------|
|---------------------------------------------------|
|-5555555555555333333333333111111111111333333333----| x6 aprox

Repit the last part till the end

---------------------------------------------
Raise your fist in name of satan


Текст, аккорды и табулатура для песни "Spellbound By The Devil", исполняет "Dimmu Borgir".
Используемые в песне аккорды можно найти в разделе Как брать аккорды. Аккорды для шестиструнной гитары. Другие песни можно найти на нашем сайте, воспользовавшись алфавитным указателем вверху страницы.


 
Ошибка в тексте? Выделите ошибку и нажмите Ctrl+Enter