DIMMU BORGIR - RELINQUISHMENT OF SPIRIT AND FLESH

From The Album: Enthrone Darkness Triumphant

Tabbed By: Arto Osterman 22.6.1999
E-mail: [email protected]
Web: http://www.geocities.com/SunsetStrip/Concert/5451

Tuning: Standard
Marking:

Let ring: l
Palm mute: .....
Slide: / or 
Hammer-on: h

This song is fucking fast...

Riff 1: (Play fast) 2 times
|---------------------------------------------|
|---------------------------------------------|
|---------------------------------------------|
|-----9h10-9-----9h10-9------8h9-8-----8h9-8--|
|-777--------777---------666-------666--------|
|---------------------------------------------|

2 times
|------------------------------------------------------|
|------------------------------------------------------|
|------------------------------------------------------|
|-----11h12-11-----11h12-11-----10h11-10-----10h11-10--|
|-999----------999----------888----------888-----------|
|------------------------------------------------------|


Riff 2:
|-------------------------------------|
|-------------------------------------|
|-------------------------------------|
|-------------------------------------|
|-2222222222222222-333333333333333----|
|-0000000000000000-111111111111111----|

 ...King of tempest and storms...

Riff 1 again

Riff 3:
|-----------------------------------|
|-----------------------------------|
|-----------------------------------|
|--9-999--7-777--9-999-----------8--|
|--7-777--5-555--7-777--10/9/10--6--|
|-----------------------8-/7/8------|
           

Riff 4: (This is great riff)
|--------------------------------------------------|
|--------------------------------------------------|
|--------------------------------------------------|
|--------------------------------------------------|
|-2--2--5/4---2--2--5/4---2--2--5/4---2--2--5/4/5--|
|-0--0--3/2---0--0--3/2---0--0--3/2---0--0--3/2/3--|
           
...Revealing Thy powers in vision and dreams...

Riff 5:
|---------------------------------|
|---------------------------------|
|---------------------------------|
|-777777777777777-66666666666666--|
|-555555555555555-44444444444444--|
|---------------------------------|
           

Riff 6:
|------------------------------------------------------|
|------------------------------------------------------|
|------------------------------------------------------|
|------------------------------------------------------|
|-2222222222222222--3333333333333333-7777777777777777--|              
|-0000000000000000--1111111111111111-5555555555555555--|
  ................  ................ ................           

  ...I entreat You with devotion...

Riff 1 again


Текст, аккорды и табулатура для песни "Relinquishment Of Spirit And Flesh", исполняет "Dimmu Borgir".
Используемые в песне аккорды можно найти в разделе Как брать аккорды. Аккорды для шестиструнной гитары. Другие песни можно найти на нашем сайте, воспользовавшись алфавитным указателем вверху страницы.


 
Ошибка в тексте? Выделите ошибку и нажмите Ctrl+Enter