D I M M U B O R G I R - RAABJORN SPEILER DRAUGHEIMENS SKODDE
Tabbed by: Scarecrow ([email protected])


RIFF1: 
|-----------| 
|-----------| 
|-----------| 
|-9---------| 
|-7-----9---| 
|-------7---| 

RIFF2: 
|--------------------------------------| 
|--------------------------------------| 
|--------------------------------------| 
|-4--4-4-7----------4--4-4-4----7------| 
|-2--2-2-5-5--5-55--2--2-2-5-55-5-4-4--| 
|----------3--3-33-----------33---2-2--| 

RIFF3: 
|---------------------------------| 
|---------------------------------| 
|---------------------------------| 
|-------101010-9-------10-9-7-9---| 
|-7-777-8-8-8--7-------8--7-5-7---| 
|-5-555----------5-555------------|
 
RIFF4: 
|--------------------------------|------| 
|--------------------------------|------| 
|--------------------------------|------| 
|---------------------------10---|-9----| 
|------8----7----3-5---7-77----77|---77-| 
|-5-55---55---55-----------------|------| 
.. .. .. .. .. ^ .. 
Play this only 1st and 3rd time. 

FILL1: 
|-----------| 
|-----------| 
|-----------| 
|----10-----| 
|-8------8--| 
|-----------| 

FILL2: 
|---------------------|
|---------------------| 
|---------------------| 
|----10--------12-----| 
|-8------8--10----10--| 
|---------------------| 

RIFF5: 
|--------------------| 
|--------------------| 
|--------------------| 
|--------------------| 
|-7-2-10-9-7-2-10-5--| 
|-5-0-8--7-5-0-8--3--| 

RIFF6: 
|-------------------------------------------------| 
|-------------------------------------------------| 
|-------------------------------------------------| 
|-------------------------------------------------| 
|-777-222-101010-999-777-222-101010-555-----------| 
|-555-000-8-8-8--777-555-000-8-8-8--333-----------| 
.. .. . . .. .. .. . . .. 

RIFF7: 
|---------------------------| 
|---------------------------| 
|---------------------------| 
|---------------------------| 
|-2-2-7-1010---2-2-10-7-9---| 
|-0-0-5-8-8----0-0-8--5-7---| 
l l 

SONG STRUCTURE 

RIFF1: (6x) 
RIFF2: (2x) 
RIFF3: (2x) 
RIFF4: (4x) 1st and 3rd time end the riff4 with fill1. 2nd and 4th
time with fill2. 
RIFF5: (4x) 
RIFF4: (3x) 
RIFF5: (2x) 
RIFF6: (2x) 
RIFF7: (at least 14 times) 
This songs end is faded out


Текст, аккорды и табулатура для песни "Raabjorn Speiler Draugheimens Skodde", исполняет "Dimmu Borgir".
Используемые в песне аккорды можно найти в разделе Как брать аккорды. Аккорды для шестиструнной гитары. Другие песни можно найти на нашем сайте, воспользовавшись алфавитным указателем вверху страницы.


 
Ошибка в тексте? Выделите ошибку и нажмите Ctrl+Enter