G||--------------------------------|--------------------------------|
D||--------------------------------|--------------------------------|
A||--------------------3-----------|------------3---5-5-5-5-5-5-5-5-|
E||--0-0-0-0-0-0-0-0-0-----0-0-0-0-|--0-0-0-0-0---------------------|


                                                                    
----------------------------------|--------------------------------|
----------------------------------|--------------------------------|
--5-5-5-5-3-3-3-3-3-3-3-3-3-3-3-3-|--------------------3-----------|
----------------------------------|--0-0-0-0-0-0-0-0-0-----0-0-0-0-|


                                                                
--------------------------------|------------------------------|
--------------------------------|------------------------------|
------------3---5-5-5-5-5-5-5-5-|--5-5-5-5-3-3-3-3-3-3---------|
--0-0-0-0-0---------------------|----------------------3---2---|


                                                                  
--------------------------------|--------------------------------|
--------------------------------|--------------------------------|
--------------------3-----------|------------3---5-5-5-5-5-5-5-5-|
--0-0-0-0-0-0-0-0-0-----0-0-0-0-|--0-0-0-0-0---------------------|


                                                                    
----------------------------------|--------------------------------|
----------------------------------|--------------------------------|
--5-5-5-5-3-3-3-3-3-3-3-3-3-3-3-3-|--------------------3-----------|
----------------------------------|--0-0-0-0-0-0-0-0-0-----0-0-0-0-|


                                                                
--------------------------------|------------------------------|
--------------------------------|------------------------------|
------------3---5-5-5-5-5-5-5-5-|--5-5-5-5-3-3-3-3-3-3---------|
--0-0-0-0-0---------------------|----------------------3---2---|


                                                                  
--------------------------------|--------------------------------|
--------------------------------|--------------------------------|
--------------------3-----------|------------3---5-5-5-5-5-5-5-5-|
--0-0-0-0-0-0-0-0-0-----0-0-0-0-|--0-0-0-0-0---------------------|


                                                                    
----------------------------------|--------------------------------|
----------------------------------|--------------------------------|
--5-5-5-5-3-3-3-3-3-3-3-3-3-3-3-3-|--------------------3-----------|
----------------------------------|--0-0-0-0-0-0-0-0-0-----0-0-0-0-|


                                                                
--------------------------------|------------------------------|
--------------------------------|------------------------------|
------------3---5-5-5-5-5-5-5-5-|--5-5-5-5-3-3-3-3-3-3---------|
--0-0-0-0-0---------------------|----------------------3---2---|


                                                                  
--------------------------------|--------------------------------|
--------------------------------|--------------------------------|
--------------------3-----------|------------3---5-5-5-5-5-5-5-5-|
--0-0-0-0-0-0-0-0-0-----0-0-0-0-|--0-0-0-0-0---------------------|


                                                                    
----------------------------------|--------------------------------|
----------------------------------|--------------------------------|
--5-5-5-5-3-3-3-3-3-3-3-3-3-3-3-3-|--------------------3-----------|
----------------------------------|--0-0-0-0-0-0-0-0-0-----0-0-0-0-|


                                                                
--------------------------------|------------------------------|
--------------------------------|------------------------------|
------------3---5-5-5-5-5-5-5-5-|--5-5-5-5-3-3-3-3-3-3---------|
--0-0-0-0-0---------------------|----------------------3---2---|


                                                                  
--------------------------------|--------------------------------|
--------------------------------|--------------------------------|
--------------------3-----------|------------3---5-5-5-5-5-5-5-5-|
--0-0-0-0-0-0-0-0-0-----0-0-0-0-|--0-0-0-0-0---------------------|


                                                                    
----------------------------------|--------------------------------|
----------------------------------|--------------------------------|
--5-5-5-5-3-3-3-3-3-3-3-3-3-3-3-3-|--------------------3-----------|
----------------------------------|--0-0-0-0-0-0-0-0-0-----0-0-0-0-|


                                                                
--------------------------------|------------------------------|
--------------------------------|------------------------------|
------------3---5-5-5-5-5-5-5-5-|--5-5-5-5-3-3-3-3-3-3---------|
--0-0-0-0-0---------------------|----------------------3---2---|


                                                                              
--------------------------------------|--------------------------------------|
--------------------------------------|--------------------------------------|
--0--0--0--0--0--0--0--0--0--0--0--0--|--0--0--0--0--0--0--------------------|
--------------------------------------|--------------------1--1--1--1--1--1--|


                                                                              
--------------------------------------|--------------------------------------|
--------------------------------------|--------------------------------------|
--------------------------------------|--0--0--0--0--0--0--0--0--0--0--0--0--|
--1--1--1--1--1--1--1--1--1--1--1--1--|--------------------------------------|


                                                                              
--------------------------------------|--------------------------------------|
--------------------------------------|--------------------------------------|
--0--0--0--0--0--0--------------------|--------------------------------------|
--------------------1--1--1--1--1--1--|--1--1--1--1--1--1--1--1--1--1--1--1--|


                                                                              
--------------------------------------|--------------------------------------|
--------------------------------------|--------------------------------------|
--0--0--0--0--0--0--0--0--0--0--0--0--|--0--0--0--0--0--0--------------------|
--------------------------------------|--------------------1--1--1--1--1--1--|


                                                                              
--------------------------------------|--------------------------------------|
--------------------------------------|--------------------------------------|
--------------------------------------|--0--0--0--0--0--0--0--0--0--0--0--0--|
--1--1--1--1--1--1--1--1--1--1--1--1--|--------------------------------------|


                                                                              
--------------------------------------|--------------------------------------|
--------------------------------------|--------------------------------------|
--0--0--0--0--0--0--------------------|--------------------------------------|
--------------------1--1--1--1--1--1--|--1--1--1--1--1--1--1--1--1--1--1--1--|


                                                                              
--------------------------------------|--------------------------------------|
--------------------------------------|--------------------------------------|
--0--0--0--0--0--0--0--0--0--0--0--0--|--0--0--0--0--0--0--------------------|
--------------------------------------|--------------------1--1--1--1--1--1--|


                                                                              
--------------------------------------|--------------------------------------|
--------------------------------------|--------------------------------------|
--------------------------------------|--0--0--0--0--0--0--0--0--0--0--0--0--|
--1--1--1--1--1--1--1--1--1--1--1--1--|--------------------------------------|


                                                                              
--------------------------------------|--------------------------------------|
--------------------------------------|--------------------------------------|
--0--0--0--0--0--0--------------------|--------------------------------------|
--------------------1--1--1--1--1--1--|--1--1--1--1--1--1--1--1--1--1--1--1--|


                                                                    
---------------------|---------------------|-----------------------|
---------------------|---------------------|-----------------------|
---------------------|--5------5--5--------|-----------------------|
--1------1--1--------|---------------------|--5------5--5----5--0--|


                                                                    
-----------------------|---------------------|---------------------|
-----------------------|---------------------|---------------------|
-----------------------|---------------------|--5------5--5--------|
--5------5--5----5--0--|--1------1--1--------|---------------------|


                                                                      
-----------------------|-----------------------|---------------------|
-----------------------|-----------------------|---------------------|
-----------------------|-----------------------|---------------------|
--5------5--5----5--0--|--5------5--5----5--0--|--1------1--1--------|


                                                                      
---------------------|-----------------------|-----------------------|
---------------------|-----------------------|-----------------------|
--5------5--5--------|-----------------------|-----------------------|
---------------------|--5------5--5----5--0--|--5------5--5----5--0--|


                                                                    
---------------------|---------------------|-----------------------|
---------------------|---------------------|-----------------------|
---------------------|--5------5--5--------|-----------------------|
--1------1--1--------|---------------------|--5------5--5----5--0--|


                                                                    
-----------------------|---------------------|---------------------|
-----------------------|---------------------|---------------------|
-----------------------|---------------------|--5------5--5--------|
--5------5--5----5--0--|--1------1--1--------|---------------------|


                                                                      
-----------------------|-----------------------|---------------------|
-----------------------|-----------------------|---------------------|
-----------------------|-----------------------|---------------------|
--5------5--5----5--0--|--5------5--5----5--0--|--1------1--1--------|


                                                                      
---------------------|-----------------------|-----------------------|
---------------------|-----------------------|-----------------------|
--5------5--5--------|-----------------------|-----------------------|
---------------------|--5------5--5----5--0--|--5------5--5----5--0--|


                                                                    
---------------------|---------------------|-----------------------|
---------------------|---------------------|-----------------------|
---------------------|--5------5--5--------|-----------------------|
--1------1--1--------|---------------------|--5------5--5----5--0--|


                                                                    
-----------------------|---------------------|---------------------|
-----------------------|---------------------|---------------------|
-----------------------|---------------------|--5------5--5--------|
--5------5--5----5--0--|--1------1--1--------|---------------------|


                                                                    
-----------------------|-----------------------|-------------------|
-----------------------|-----------------------|--5----------------|
-----------------------|-----------------------|-------------------|
--5------5--5----5--0--|--5------5--5----5--0--|-------------------|


                                                              
--------------------|-------------------|--------------------|
--0--------3--------|--5----------------|--0--------3--------|
--------------------|-------------------|--------------------|
--------------------|-------------------|--------------------|


                                                             
-------------------|--------------------|-------------------|
--5----------------|--0--------3--------|--5----------------|
-------------------|--------------------|-------------------|
-------------------|--------------------|-------------------|


                                                              
--------------------|-------------------|--------------------|
--0--------3--------|--5----------------|--0--------3--------|
--------------------|-------------------|--------------------|
--------------------|-------------------|--------------------|


                                                             
-------------------|--------------------|-------------------|
--5----------------|--0--------3--------|--5----------------|
-------------------|--------------------|-------------------|
-------------------|--------------------|-------------------|


                                                              
--------------------|-------------------|--------------------|
--0--------3--------|--5----------------|--0--------3--------|
--------------------|-------------------|--------------------|
--------------------|-------------------|--------------------|


                                                             
-------------------|--------------------|-------------------|
--5----------------|--0--------3--------|--5----------------|
-------------------|--------------------|-------------------|
-------------------|--------------------|-------------------|


                                                              
--------------------|-------------------|--------------------|
--0--------3--------|--5----------------|--0--------3--------|
--------------------|-------------------|--------------------|
--------------------|-------------------|--------------------|


                                                             
-------------------|--------------------|-------------------|
--5----------------|--0--------3--------|--5----------------|
-------------------|--------------------|-------------------|
-------------------|--------------------|-------------------|


                                                              
--------------------|-------------------|--------------------|
--0--------3--------|--5----------------|--0--------3--------|
--------------------|-------------------|--------------------|
--------------------|-------------------|--------------------|


                                                             
-------------------|--------------------|-------------------|
--5----------------|--0--------3--------|--5----------------|
-------------------|--------------------|-------------------|
-------------------|--------------------|-------------------|


                                                                 
--------------------|---------------------|---------------------|
--0--------3--------|---------------------|---------------------|
--------------------|---------------------|--5------5--5--------|
--------------------|--1------1--1--------|---------------------|


                                                                      
-----------------------|-----------------------|---------------------|
-----------------------|-----------------------|---------------------|
-----------------------|-----------------------|---------------------|
--5------5--5----5--0--|--5------5--5----5--0--|--1------1--1--------|


                                                                      
---------------------|-----------------------|-----------------------|
---------------------|-----------------------|-----------------------|
--5------5--5--------|-----------------------|-----------------------|
---------------------|--5------5--5----5--0--|--5------5--5----5--0--|


                                                                    
---------------------|---------------------|-----------------------|
---------------------|---------------------|-----------------------|
---------------------|--5------5--5--------|-----------------------|
--1------1--1--------|---------------------|--5------5--5----5--0--|


                                                                    
-----------------------|---------------------|---------------------|
-----------------------|---------------------|---------------------|
-----------------------|---------------------|--5------5--5--------|
--5------5--5----5--0--|--1------1--1--------|---------------------|


                                                                      
-----------------------|-----------------------|---------------------|
-----------------------|-----------------------|---------------------|
-----------------------|-----------------------|---------------------|
--5------5--5----5--0--|--5------5--5----5--0--|--1------1--1--------|


                                                                      
---------------------|-----------------------|-----------------------|
---------------------|-----------------------|-----------------------|
--5------5--5--------|-----------------------|-----------------------|
---------------------|--5------5--5----5--0--|--5------5--5----5--0--|


                                                                    
---------------------|---------------------|-----------------------|
---------------------|---------------------|-----------------------|
---------------------|--5------5--5--------|-----------------------|
--1------1--1--------|---------------------|--5------5--5----5--0--|


                                                                           
-----------------------|------------------------|-------------------------|
-----------------------|------------------------|-------------------------|
-----------------------|--0-0-0-0-0-0-0-0-0-0-0-|---0-0-0-0-0-3-3-3-3-3-3-|
--5------5--5----5--0--|------------------------|-------------------------|


                                                                           
-----------------------|------------------------|-------------------------|
-----------------------|------------------------|-------------------------|
---3-3-3-3-3-3-3-3-3-3-|--0-0-0-0-0-0-0-0-0-0-0-|---0-0-0-0-0-3-3-3-3-3-3-|
-----------------------|------------------------|-------------------------|


                                                                           
-----------------------|------------------------|-------------------------|
-----------------------|------------------------|-------------------------|
---3-3-3-3-3-3-3-3-3-3-|--0-0-0-0-0-0-0-0-0-0-0-|---0-0-0-0-0-3-3-3-3-3-3-|
-----------------------|------------------------|-------------------------|


                                                                           
-----------------------|------------------------|-------------------------|
-----------------------|------------------------|-------------------------|
---3-3-3-3-3-3-3-3-3-3-|--0-0-0-0-0-0-0-0-0-0-0-|---0-0-0-0-0-3-3-3-3-3-3-|
-----------------------|------------------------|-------------------------|


                                                                           
-----------------------|------------------------|-------------------------|
-----------------------|------------------------|-------------------------|
---3-3-3-3-3-3-3-3-3-3-|--0-0-0-0-0-0-0-0-0-0-0-|---0-0-0-0-0-3-3-3-3-3-3-|
-----------------------|------------------------|-------------------------|


                                                                           
-----------------------|------------------------|-------------------------|
-----------------------|------------------------|-------------------------|
---3-3-3-3-3-3-3-3-3-3-|--0-0-0-0-0-0-0-0-0-0-0-|---0-0-0-0-0-3-3-3-3-3-3-|
-----------------------|------------------------|-------------------------|


                                                               
-----------------------|--------------------------------------|
-----------------------|--------------------------------------|
---3-3-3-3-3-3-3-3-3-3-|--0--0--0--0--0--0--0--0--0--0--0--0--|
-----------------------|--------------------------------------|


                                                                              
--------------------------------------|--------------------------------------|
--------------------------------------|--------------------------------------|
--0--0--0--0--0--0--0--0--0--0--0--0--|--3--3--3--3--3--3--3--3--3--3--3--3--|
--------------------------------------|--------------------------------------|


                                                                              
--------------------------------------|--------------------------------------|
--------------------------------------|--------------------------------------|
--3--3--3--3--3--3--3--3--3--3--3--3--|--0--0--0--0--0--0--0--0--0--0--0--0--|
--------------------------------------|--------------------------------------|


                                                                              
--------------------------------------|--------------------------------------|
--------------------------------------|--------------------------------------|
--0--0--0--0--0--0--0--0--0--0--0--0--|--3--3--3--3--3--3--3--3--3--3--3--3--|
--------------------------------------|--------------------------------------|


                                                                              
--------------------------------------|--------------------------------------|
--------------------------------------|--------------------------------------|
--3--3--3--3--3--3--3--3--3--3--3--3--|--0--0--0--0--0--0--0--0--0--0--0--0--|
--------------------------------------|--------------------------------------|


                                                                              
--------------------------------------|--------------------------------------|
--------------------------------------|--------------------------------------|
--0--0--0--0--0--0--0--0--0--0--0--0--|--3--3--3--3--3--3--3--3--3--3--3--3--|
--------------------------------------|--------------------------------------|


                                                                              
--------------------------------------|--------------------------------------|
--------------------------------------|--------------------------------------|
--3--3--3--3--3--3--3--3--3--3--3--3--|--0--0--0--0--0--0--0--0--0--0--0--0--|
--------------------------------------|--------------------------------------|


                                                                              
--------------------------------------|--------------------------------------|
--------------------------------------|--------------------------------------|
--0--0--0--0--0--0--0--0--0--0--0--0--|--3--3--3--3--3--3--3--3--3--3--3--3--|
--------------------------------------|--------------------------------------|


                                                                              
--------------------------------------|--------------------------------------|
--------------------------------------|--------------------------------------|
--3--3--3--3--3--3--3--3--3--3--3--3--|--0--0--0--0--0--0--0--0--0--0--0--0--|
--------------------------------------|--------------------------------------|


                                                                              
--------------------------------------|--------------------------------------|
--------------------------------------|--------------------------------------|
--0--0--0--0--0--0--0--0--0--0--0--0--|--3--3--3--3--3--3--3--3--3--3--3--3--|
--------------------------------------|--------------------------------------|


                                                                              
--------------------------------------|--------------------------------------|
--------------------------------------|--------------------------------------|
--3--3--3--3--3--3--3--3--3--3--3--3--|--0--0--0--0--0--0--0--0--0--0--0--0--|
--------------------------------------|--------------------------------------|


                                                                              
--------------------------------------|--------------------------------------|
--------------------------------------|--------------------------------------|
--0--0--0--0--0--0--0--0--0--0--0--0--|--3--3--3--3--3--3--3--3--3--3--3--3--|
--------------------------------------|--------------------------------------|


                                                                              
--------------------------------------|--------------------------------------|
--------------------------------------|--------------------------------------|
--3--3--3--3--3--3--3--3--3--3--3--3--|--0--0--0--0--0--0--0--0--0--0--0--0--|
--------------------------------------|--------------------------------------|


                                                                              
--------------------------------------|--------------------------------------|
--------------------------------------|--------------------------------------|
--0--0--0--0--0--0--0--0--0--0--0--0--|--3--3--3--3--3--3--3--3--3--3--3--3--|
--------------------------------------|--------------------------------------|


                                                                              
--------------------------------------|--------------------------------------|
--------------------------------------|--------------------------------------|
--3--3--3--3--3--3--3--3--3--3--3--3--|--0--0--0--0--0--0--0--0--0--0--0--0--|
--------------------------------------|--------------------------------------|


                                                                              
--------------------------------------|--------------------------------------|
--------------------------------------|--------------------------------------|
--0--0--0--0--0--0--0--0--0--0--0--0--|--3--3--3--3--3--3--3--3--3--3--3--3--|
--------------------------------------|--------------------------------------|


                                                                              
--------------------------------------|-------------------|------------------|
--------------------------------------|-------------------|------------------|
--3--3--3--3--3--3--3--3--3--3--3--3--|-------------------|------------------|
--------------------------------------|--0----------------|------------------|


                                                    
------------------|--------------------------------|
------------------|--------------------------------|
------------------|--------------------3-----------|
------------------|--0-0-0-0-0-0-0-0-0-----0-0-0-0-|


                                                                    
--------------------------------|----------------------------------|
--------------------------------|----------------------------------|
------------3---5-5-5-5-5-5-5-5-|--5-5-5-5-3-3-3-3-3-3-3-3-3-3-3-3-|
--0-0-0-0-0---------------------|----------------------------------|


                                                                  
--------------------------------|--------------------------------|
--------------------------------|--------------------------------|
--------------------3-----------|------------3---5-5-5-5-5-5-5-5-|
--0-0-0-0-0-0-0-0-0-----0-0-0-0-|--0-0-0-0-0---------------------|


                                                                
------------------------------|--------------------------------|
------------------------------|--------------------------------|
--5-5-5-5-3-3-3-3-3-3---------|--------------------3-----------|
----------------------3---2---|--0-0-0-0-0-0-0-0-0-----0-0-0-0-|


                                                                    
--------------------------------|----------------------------------|
--------------------------------|----------------------------------|
------------3---5-5-5-5-5-5-5-5-|--5-5-5-5-3-3-3-3-3-3-3-3-3-3-3-3-|
--0-0-0-0-0---------------------|----------------------------------|


                                                                  
--------------------------------|--------------------------------|
--------------------------------|--------------------------------|
--------------------3-----------|------------3---5-5-5-5-5-5-5-5-|
--0-0-0-0-0-0-0-0-0-----0-0-0-0-|--0-0-0-0-0---------------------|


                                                                
------------------------------|--------------------------------|
------------------------------|--------------------------------|
--5-5-5-5-3-3-3-3-3-3---------|--------------------3-----------|
----------------------3---2---|--0-0-0-0-0-0-0-0-0-----0-0-0-0-|


                                                                    
--------------------------------|----------------------------------|
--------------------------------|----------------------------------|
------------3---5-5-5-5-5-5-5-5-|--5-5-5-5-3-3-3-3-3-3-3-3-3-3-3-3-|
--0-0-0-0-0---------------------|----------------------------------|


                                                                  
--------------------------------|--------------------------------|
--------------------------------|--------------------------------|
--------------------3-----------|------------3---5-5-5-5-5-5-5-5-|
--0-0-0-0-0-0-0-0-0-----0-0-0-0-|--0-0-0-0-0---------------------|


                                                           
------------------------------|-------------------|------||
------------------------------|-------------------|------||
--5-5-5-5-3-3-3-3-3-3---------|-------------------|------||
----------------------3---2---|--0----------------|------||


Текст, аккорды и табулатура для песни "In Deaths Embrace", исполняет "Dimmu Borgir".
Используемые в песне аккорды можно найти в разделе Как брать аккорды. Аккорды для шестиструнной гитары. Другие песни можно найти на нашем сайте, воспользовавшись алфавитным указателем вверху страницы.


 
Ошибка в тексте? Выделите ошибку и нажмите Ctrl+Enter