Tuning is D,A,D,G,B,e
Riff 1
                
|--------------------------------------------|
|--------------------------------------------|
|--------------------------------------------|
|-2---------------5----2---------------5-----|
|-2---------------3----2---------------3-----|
|-2-2-2-2-2-2-2-2------2-2-2-2-2-2-2-2-------|
  . . . . . . . .        . . . . . . .

1.ending

|-----------------------------------------|
|-----------------------------------------|
|-----------------------------------------|
|-7-7-7-7-7-7-7-7-7-7-5-5-5-5-5-5-5-5-5-5-|
|-5-5-5-5-5-5-5-5-5-5-3-3-3-3-3-3-3-3-3-3-|
|-----------------------------------------|
    

2.ending

|-----------------------------------------|
|-----------------------------------------|
|-----------------------------------------|
|-7-7-7-7-7-7-7-7-7-7-5-5-5-5-5-5-5-5-5-4-|
|-5-5-5-5-5-5-5-5-5-5-3-3-3-3-3-3-3-3-5-4-|
|-------------------------------------5-4-|
   


Verse

|---------------------------------|
|---------------------------------|
|---------------------------------|
|-7-7-7-7-7-7-7-7-3-3-3-3-3-3-3-3-|
|-7-7-7-7-7-7-7-7-3-3-3-3-3-3-3-3-|
|-7-7-7-7-7-7-7-7-3-3-3-3-3-3-3-3-|

Riff 2

|--------------------------------|
|--------------------------------|


Текст, аккорды и табулатура для песни "In Deaths Embrace", исполняет "Dimmu Borgir".
Используемые в песне аккорды можно найти в разделе Как брать аккорды. Аккорды для шестиструнной гитары. Другие песни можно найти на нашем сайте, воспользовавшись алфавитным указателем вверху страницы.


 
Ошибка в тексте? Выделите ошибку и нажмите Ctrl+Enter