=========================================================================
ARTIST: Dimmu Borgir
SONG: Hunnerkongen
TRANSCRIBED BY: Thomas Abraham

NOTE: This song was transcribed with normal tuning.



RIFF A
|----------------------|
|----------------------|
|-----------2----4/34-| REPEAT 6x  
|-3----5----0000-2/12-| 
|-1111-3333------------|
|----------------------|

RIFF B
|--------------------------------------|
|--------------------------------------|
|--------------------------------------| REPEAT 4x
|--------------------------------------|
|-22222222222222-00-33333333-0000-1111-|
|--------------------------------------|
	  14x			8x

PLAY RIFF A 4x

PLAY RIFF B 4x

RIFF C
|-----------------------------------------|
|-----------------------------------------|
|-----------------------------------------| REPEAT 4x
|-9----9----9----9----7----7----7----7----|
|-7-77-7-77-7-77-7-77-5-55-5-55-5-55-5-55-|
|-----------------------------------------|

RIFF D
|------------------------------------|
|------------------------------------|
|------------------------------------| REPEAT 4x
|-9----9----9----9----7----7-----7-9-|
|-7-77-7-77-7-77-7-77-5-55-5-55--5-7-|
|------------------------------------|

RIFF E
|-----------------------------------------|
|-----------------------------------------|
|-----------------------------6-4-3-------| REPEAT 4x
|-22222222-0000-2222-33333333-------6-4-3-|
|-----------------------------------------|
|-----------------------------------------|
     8x			8x



RIFF F
|-----------|
|-----------|
|-----------| REPEAT 4x
|-2-4-2-4-5-|
|-0-2-0-2-3-|
|-----------|


PLAY RIFF E 8x


RIFF G
|-------|
|-------|
|-------|
|-2--22-|
|-0--00-|
|-------|


Текст, аккорды и табулатура для песни "Hunnerkongen", исполняет "Dimmu Borgir".
Используемые в песне аккорды можно найти в разделе Как брать аккорды. Аккорды для шестиструнной гитары. Другие песни можно найти на нашем сайте, воспользовавшись алфавитным указателем вверху страницы.


 
Ошибка в тексте? Выделите ошибку и нажмите Ctrl+Enter