Band       : Dimmu Borgir
Song       : Broderskapets Ring
Album      : Stormblast
Tabbed by  : KnjaZ_LucifeR ([email protected])
Tuning     : E(Normal)
Version 0.1a - July 2002(Any Corrections Are Welcome)

                                 LEGEND   
                             ~ - Let Ring
                             h - hammer on
                             b - bend
                             / - slide

Song Structure:
RIFF 1(x6) -> RIFF 2(x4) -> RIFF 1(x4) -> RIFF 3(x4) -> RIFF 2(x4)(w/o El.Guit.) -> RIFF 3(x10)

                                                                         ______
  RIFF 1 (x6)                                                                  
  Rhythm  Guitar                                                               |
e|-------------------------------------------------------------------------|   |
B|-------------------------------------------------------------------------|   |
G|-------------------------------------------------------------------------|   |
D|-9-9-9-9-9-9-------------------------------------------------------------|   |
A|-7-7-7-7-7-7-7-7-7-7-7-7-9-9-9-9-9-9-10-10-10-10-10-10-12-12-12-12-12-12-|   |
E|-------------5-5-5-5-5-5-7-7-7-7-7-7--8--8--8--8--8--8-10-10-10-10-10-10-|   |
                                                                               |
  Electro Guitar                                                        TOGETHER
  On the Second Time(x1)                                                       |
A|-7~--------------------------------------------------------|                 |
  On the Third Time(x4)(Watch For Timing)                                      |
e|-----------------------------------------------------------|                 |
B|-----------------------------------------------------------|                 |
G|-----------------------------------------------------------|                 |
D|-----------------------------------------------------------|                 |
A|---7~-7--7h8b7---------------------------------------------|                 |
E|----------------5--5--5h6b5/8~-7--5--7--8/10~-10h11b10-10~-|_________________/

  RIFF 2(x4)
  Rhythm  Guitar
e|------------------------------------------------------------------|
B|------------------------------------------------------------------|
G|------------------------------------------------------------------|
D|------------------------------------------------------------------|
A|-7-7-7-7-7-7-10-10-10-9-10-12-14-14-14-14-14-14-14-14-14-14-14-14-|
E|-5-5-5-5-5-5--8--8--8-7--8-10-12-12-12-12-12-12-12-12-12-12-12-12-|
         _____________________________________________________________________
   RIFF 1                                                                     
   Rhythm  Guitar(x4)                                                         |
                                                                              |
   Electro  Guitar                                                            |
   On the Third Time(x2)(Watch For Timing)                                    |
e|-------------------------------------------------------------------| TOGETHER
B|-------------------------------------------------------------------|        |
G|-------------------------------------------------------------------|        |
D|-------------------------------------------------------------------|        |
A|-7~-7-7h8b7-------7h8b7-/10~-8-7-7h8b7-/10~-10h11b11-10~----7/5~---|        |
E|-------------5-5-5-------------------------------------------------|________/

             __________________________________________________       
   RIFF 3(4x)                                                  
   Rhythm  Guitar                                              |
e|-------------------------------------------------------|     |
B|-------------------------------------------------------|     |
G|-------------------------------------------------------|     |
D|-7-7-7-7-7-7-10-10-10-10-10-10-------------------------|     |
A|-5-5-5-5-5-5--8--8--8--8--8--8-7-7-7-7-7-7-3-3-3-5-5-5-|     |
E|-------------------------------5-5-5-5-5-5-1-1-1-3-3-3-|     |
                                                        TOGETHER
  Electro Guitar(*)                                            |
  On the Third Time(x2)(Watch For Timing)                      |
e|-------------------------------------------------|           |
B|-------------------------------------------------|           |
G|-------------------------------------------------|           |
D|-------7-----------7-----------------------------|           |
A|-5-7-8---8-7-5-7-8---8-7-7-7-7-7-7-7-3-3-3-5-5-5-|           |
E|-------------------------5-5-5-5-5-5-1-1-1-3-3-3-|___________/

RIFF 2 (x4) (Without Electro Guitar)
RIFF 3 (x10)(On the Fifth Time Electro Guitar(*))

It's All.


Текст, аккорды и табулатура для песни "Broderskapets Ring", исполняет "Dimmu Borgir".
Используемые в песне аккорды можно найти в разделе Как брать аккорды. Аккорды для шестиструнной гитары. Другие песни можно найти на нашем сайте, воспользовавшись алфавитным указателем вверху страницы.


 
Ошибка в тексте? Выделите ошибку и нажмите Ctrl+Enter