1. Silenoz (rhythm guitar) 
2. Shagrath (lead guitar)
3. Stian Aarstad (keyboards) (piano arranged for guitar)




1. Silenoz
                                               
E------------------------------------|
B------------------------------------|
G||*--------------------------------------------------------*|  x6 
D||*--9--9--9--9--9--9--2--2--|--2--2--2--2--5--5--5--5--|--5--5--7--7--7--7--7--7--*|
A||---7--7--7--7--7--7--0--0--|--0--0--0--0--3--3--3--3--|--3--3--5--5--5--5--5--5---|
E------------------------------------|



  -----------------------------------------------|
  -----------------------------------------------|
  |*--------------------------------------------------------*|  x4
  |*--2--2--2--2--2--2--5--5--|--5--4--5--7/-9--9--9--9--|--9--9--9--9--9--9--9--9--*|
  |---0--0--0--0--0--0--3--3--|--3--2--3--5/-7--7--7--7--|--7--7--7--7--7--7--7--7---|
  -----------------------------------------------|



  -----------------------------------------------|
  -----------------------------------------------|
  |*--------------------------------------------------------*|  x4
  |*--9--9--9--9--9--9--2--2--|--2--2--2--2--5--5--5--5--|--5--5--7--7--7--7--7--7--*|
  |---7--7--7--7--7--7--0--0--|--0--0--0--0--3--3--3--3--|--3--3--5--5--5--5--5--5---|
  -----------------------------------------------|



  -----------------------------------------------|
  -----------------------------------------------|
  |*--------------------------------------------------------*|  x4
  |*--9--9--9--9--9--9--2--2--|--2--2--2--2--5--5--5--5--|--5--5--------------------*|
  |---7--7--7--7--7--7--0--0--|--0--0--0--0--3--3--3--3--|--3--3--3--3--3--5--5--5---|
  -------------------------------|--------1--1--1--3--3--3---|



  -----------------------------------------------|
  -----------------------------------------------|
  |*--------------------------------------------------------*|  x4
  |*--2--2--2--2--2--2--5--5--|--5--4--5--7/-9--9--9--9--|--9--9--9--9--9--9--9--9--*|
  |---0--0--0--0--0--0--3--3--|--3--2--3--5/-7--7--7--7--|--7--7--7--7--7--7--7--7---|
  -----------------------------------------------|



  -----------------------------------------------||
  -----------------------------------------------||
  |*--------------------------------------------------------*||  x10  (fade out)
  |*--9--9--9--9--9--9--2--2--|--2--2--2--2--5--5--5--5--|--5--5--------------------*||
  |---7--7--7--7--7--7--0--0--|--0--0--0--0--3--3--3--3--|--3--3--3--3--3--5--5--5---||
  -------------------------------|--------1--1--1--3--3--3---||








2. Shagrath
                                                                                                    
E-----------------------------------------------------|
B-----------------------------------------------------|
G||*-------------------------------------------------------------------------*|  x2
D||*--9--9-9-9-9-9--9-9-9-9-2--2-2-|--2-2-2--2-2-2-2-5--5-5-5-5-5--|--5-5-5-5-7--7-7-7-7-7--7-7-7-7--*|
A||---7--7-7-7-7-7--7-7-7-7-0--0-0-|--0-0-0--0-0-0-0-3--3-3-3-3-3--|--3-3-3-3-5--5-5-5-5-5--5-5-5-5---|
E-----------------------------------------------------|



  -------------------------------------------------|
  -------------------------------------------------|
  |*----------------------------------------------------------*|  x4
  |*--9--9--9--9--10--9--2--2--|--2--2--------------------|--------0--0--0--7--5--4-5-*|
  -----------------|--------3--2--3--3--2--0--|--2--3----------------------|
  -------------------------------------------------|



  -----------------------------------------------|
  -----------------------------------------------|
  |*--------------------------------------------------------*|  x4
  |*--2--2--2--2--2--2--5--5--|--5--4--5--7/-9--9--9--9--|--9--9--9--9--9--9--9--9--*|
  |---0--0--0--0--0--0--3--3--|--3--2--3--5/-7--7--7--7--|--7--7--7--7--7--7--7--7---|
  -----------------------------------------------|



  ----------------------------------------------------------------|
  ----------------------------------------------------------------|
  |*-------------------------------------------------------------------------*|  x2
  |*--9--9-9-9-9-9--9-9-9-9-2--2-2-|--2-2-2--2-2-2-2-5--5-5-5-5-5--|--5-5-5-5-7--7-7-7-7-7--7-7-7-7--*|
  |---7--7-7-7-7-7--7-7-7-7-0--0-0-|--0-0-0--0-0-0-0-3--3-3-3-3-3--|--3-3-3-3-5--5-5-5-5-5--5-5-5-5---|
  ----------------------------------------------------------------|



  --------------------------------------------------------------|
  --------------------------------------------------------------|
  |*-----------------------------------------------------------------------*|  x2
  |*--9--9--9--9--10--9--2--2--|--2--9--10--10--12--12--10--9--|--10--9/-12--12--12--14--12--10-12-*|
  --------------------------------------------------------------|
  --------------------------------------------------------------|



  ---------------------------------------------------------------|
  ---------------------------------------------------------------|
  |*------------------------------------------------------------------------*|  x2
  |*--9--9-9-9-9-9--9-9-9-9-2--2-2-|--2-2-2--2-2-2-2-5--5-5-5-5-5--|--5-5-5-5-----------------------*|
  |---7--7-7-7-7-7--7-7-7-7-0--0-0-|--0-0-0--0-0-0-0-3--3-3-3-3-3--|--3-3-3-3-3--3-3-3-3-5--5-5-5-5--|
  -----------------------------------------|----------1--1-1-1-1-3--3-3-3-3--|



  --------------------------------------|
  --------------------------------------|
  |*--------0--2--0-----------|--0--2--0-----------------------*|  x2
  |*--2--4-----------4--2--4--4--5-----------------*|
  -------------------3--------|------3------5-------|
  ----------------------------|------1------3-------|


                                                                                                   
  -----------------------------------------------|
  -----------------------------------------------|
  |*--------------------------------------------------------*|  x4
  |*--2--2--2--2--2--2--5--5--|--5--4--5--7/-9--9--9--9--|--9--9--9--9--9--9--9--9--*|
  |---0--0--0--0--0--0--3--3--|--3--2--3--5/-7--7--7--7--|--7--7--7--7--7--7--7--7---|
  -----------------------------------------------|                             


  ---------------------------------------------------------------|
  ---------------------------------------------------------------|
  |*------------------------------------------------------------------------*|  x4
  |*--9--9-9-9-9-9--9-9-9-9-2--2-2-|--2-2-2--2-2-2-2-5--5-5-5-5-5--|--5-5-5-5-----------------------*|
  |---7--7-7-7-7-7--7-7-7-7-0--0-0-|--0-0-0--0-0-0-0-3--3-3-3-3-3--|--3-3-3-3-3--3-3-3-3-5--5-5-5-5--|
  -----------------------------------------|----------1--1-1-1-1-3--3-3-3-3--|



  --------------------------------------||
  --------------------------------------||
  |*--------0--2--0-----------|--0--2--0-----------------------*||  x6  (fade out)
  |*--2--4-----------4--2--4--4--5-----------------*||
  -------------------3--------|------3------5-------||
  ----------------------------|------1------3-------||




3. Stian Aarstad

E|-----3----|----2--3--5--7----0--10-0---|----3-2-3----7-5-7-------|               |--12-10-12--|
B||---5-------------------0----17-3--17----------------|               -|
G||*---------------0----|-------0--2------------------------------*|  x4 and then  -|
D||*--2-----------------|----4------------------------------------*|               -|
A------------------------------|               -|
E------------------------------|               -|



  Lyrics:


                               Kom unge bror
                         Skjenk oss din rene ungdom
                        Legg ditt liv i vеrе hender
                           Kjemp vеr krig med oss

                     La vare sorger formorke ditt sinn
                             La din sjel slites
                    Fol natten som legger seg rundt deg
                            Glem all kjaerlighet

                     Ingen теrеr skal fylle dine netter
                        Tre inn i broderskapets ring
                   Ingen svakhet skal du finne i din sjel
                      Styrken skal vandre ved din side

                                    Kom
                            Del ditt hat med oss
                          Forlat ditt svake legeme
                      La deg ei forvirres av vakre ord
                          I Doden finnes all makt


Текст, аккорды и табулатура для песни "Broderskapets Ring", исполняет "Dimmu Borgir".
Используемые в песне аккорды можно найти в разделе Как брать аккорды. Аккорды для шестиструнной гитары. Другие песни можно найти на нашем сайте, воспользовавшись алфавитным указателем вверху страницы.


 
Ошибка в тексте? Выделите ошибку и нажмите Ctrl+Enter