DIMMU BORGIR - BLESSINGS UPON THE THRONE OF TYRANNY
                      from Puritanial Euphoria Misanthropia


tabbed by saul antonio -> [email protected]


Standard tuning


Intro riff (I don't know what guitar 2 plays but maybe it's verse riff)

first time only this first part and then this whole intro riff two times
|----------------------------------------------|
|----------------------------------------------|
|----------------------------------------------|
|-444----------777777777--444------888-555-777-|
|----------444---------------------------------|
|------222--------------------222--------------|


|---------------------------------------------|
|---------------------------------------------|
|---------------------------------------------|
|-444---------777777777--444-------------888--|
|---------444------------------------555------|
|-----222--------------------222-333----------|



Verse

|--------------------------------------------------|
|--------------------------------------------------|
|--------------------------------------------------|
|--4-----------4-----------4-----------5-------5---|
|-----4-----------4-----------4------------5-------|
|-------2-5-2-------2-5-2-------2-5-2----3---3---3-|
      . . . .     . . . .     . . . .    .   .   .


Riff 2


|------------------------------------------------------------------|
|------------------------------------------------------------------|
|-----------------------------------------------------------33-2---|
|---------------------------5-----4-------------------------55-4---|
|------------------------------------------------------------------|
|-222-222-222-222-222-222-2---2-2---222-222-222-222-222-222--------|
  ... ... ... ... ... ... .   . .   ... ... ... ... ... ...


|---------------------------------------------|
|---------------------------------------------|
|---------------------------------------------|
|---------------------------5-----------------|
|----------------------------------0-4-5-2--4-|
|-222-222-222-222-222-222-2---2-2--2-6-7-3--2-|


Riff 3

|-------------------------------------------|
|-------------------------------------------|
|-------------------------------------------|
|-------------------------------------------|
|-1--1-2-4-5---5-4-2-1---1-2-4-5---5-4-2-1--|
|-------------------------------------------|
|
|
|-------------------------------------------|
|-------------------------------------------|
|-------------------------------------------|
|----------------------------------4-2------|
|--------------------------------------5-4--|
|-------------------------------------------|


that few times then this

                                   1nd and 3th | 2nd and 4th ending
|-----|---------------------------|------------|---------|
|-----|---------------------------|------------|---------|
|-3-3-|-------3-4-6--7--7---------|--7-6-4-3-3-|---------|
|-4-4-|-------4-5-8--9--9---------|--9-8-5-4-4-|-4-2-----|
|-4-4-|-4-4-4-4-5-9-10-10-10-10-10|-10-9-5-4-4-|-----5-4-|
|-----|---------------------------|------------|---------|
        . . .             .  .  .              |         |
                                               |---------|
                                               |---------|
                                               |---------|
                                               |---------|
                                               |-5-4-2-1-|
                                               |---------|




Then riff 2
     intro riff
     verse riff
     intro riff (guitar 2 plays verse riff)



Piano fill


Riff 4

                        riff 4 starts here
|----------------------|--------------------------------------|
|----------------------|--------------------------------------|
|-7-------3------------|--4--------7---------3----------------|
|-7-------3--------4-5-|--4--------7---------3---------4---5--|
|-5-------1--------4-5-|--2--------5---------1---------4---5--|
|------------------2-3-|-------------------------------2---3--|



solo guitar over riff 4

|-------------------14-------10-14------13-------10-13----13-------10-13---|
|----------12----12-------12-------12---------10----------------10---------|
|-------11----11-------11------------------10----------10----10---------10-|
|----12--------------------------------------------------------------------|
|-14-----------------------------------------------------------------------|
|--------------------------------------------------------------------------|


|---------6-9-9-----6-9-----5-----2-5----6-----3-6---|
|-------6---------6-------------2------------3-------|
|-----6---------6-------6-----2-------2----3-------3-|
|---8------------------------------------------------|
|-8--------------------------------------------------|
|----------------------------------------------------|


then this chord


|---|
|---|
|-4-|
|-4-|
|-2-|
|---|


Riff 5


|---------------------------|
|---------------------------|
|---------------------------|
|---------------------------|
|---------------------------|
|-000000000000-0-0-0-0-0-0--|
  ............ . . . . . .
  |    12    |



Then riff 4
     riff 3



ending


|--------------------------------------------------|
|--------------------------------------------------|
|--------------------------------------------------|
|-4----------4----------4----------5-------5-------|
|---4----------4----------4------------5-------5---|
|-----2-5-2------2-5-2------2-5-2----3---3---3---3-|


Текст, аккорды и табулатура для песни "Blessings Upon The Throne Of Tyranny", исполняет "Dimmu Borgir".
Используемые в песне аккорды можно найти в разделе Как брать аккорды. Аккорды для шестиструнной гитары. Другие песни можно найти на нашем сайте, воспользовавшись алфавитным указателем вверху страницы.


 
Ошибка в тексте? Выделите ошибку и нажмите Ctrl+Enter