DIMMU BORGIR - BLESSINGS UPON THE THRONE OF TYRANNY
                      from Puritanial Euphoria Misanthropia

Standard tuning - 4 String Bass

Riff 1
|--------------------------------------------------|
|--4-----------4-----------4-----------5-------5---|
|-----4-----------4-----------4------------5-------|
|-------2-5-2-------2-5-2-------2-5-2----3---3---3-|

Riff 2
|------------------------------------------------------------------|
|---------------------------5-----4-------------------------55-4---|
|------------------------------------------------------------------|
|-222-222-222-222-222-222-2---2-2---222-222-222-222-222-222--------|

|---------------------------------------------|
|---------------------------5-----------------|
|---------------------------------------------|
|-222-222-222-222-222-222-2---2-2--2-6-7-3--2-|

Riff 3
|-------------------------------------------|
|-------------------------------------------|
|-1--1-2-4-5---5-4-2-1---1-2-4-5---5-4-2-1--|
|-------------------------------------------|

|-------------------------------------------|
|----------------------------------4-2------|
|--------------------------------------5-4--|
|-------------------------------------------|

Riff 4                               1st and 3rd | 2nd and 4th ending
|-----|-----------------------------|------------|---------|
|-----|-----------------------------|------------|-4-2-----|
|-4-4-|-4-4-4-4-5-7-9-10-10-10-10-10|-10-9-5-4-4-|-----5-4-|
|-----|-----------------------------|------------|---------|

Riff 5 first Time once |riff 5				      |Last Time: (Before Rest)
|----------------------|--------------------------------------|---|
|----------------------|--------------------------------------|---|
|-5-------1------------|--2--------5---------1----------------|-2-|
|------------------2-3-|-------------------------------2---3--|---|

Riff 6
|---------------------------|
|---------------------------|
|---------------------------|
|-000000000000-0-0-0-0-0-0--|

Fill 1
|-------|
|-------|
|-------|
|0-0-12|

Riff 7
|------------------|
|------------------|
|------------------|
|0-----5-2-5-2-----|

Order:
Riff 1 (x8)
Riff 2 (x2)
Riff 3 (x2)
Riff 4 (x4)
Riff 3 (x4)
Riff 2 (x2)
Riff 1 (x4)
Riff 7 (x4)
Riff 1 (x4)
Riff 5 (x8)
Rest
Riff 6 (x15)
Fill 1 (x1)
Riff 5 (x4)
Riff 4 (x6)
Riff 3 (x2)
End on Second Part of Riff 7, You'll be able to work it out

Hope you enjoy, questions or comments: [email protected]
Cheers...


Текст, аккорды и табулатура для песни "Blessings Upon The Throne Of Tyranny", исполняет "Dimmu Borgir".
Используемые в песне аккорды можно найти в разделе Как брать аккорды. Аккорды для шестиструнной гитары. Другие песни можно найти на нашем сайте, воспользовавшись алфавитным указателем вверху страницы.


 
Ошибка в тексте? Выделите ошибку и нажмите Ctrl+Enter