Keyboard Intro (On guitar) 
------------------------------------------------------------------------ 
------------------------------------------------------------------------ 
--------------5-----------5--4--------------------3-----------3--2------ 
-----------7-----------7--------7--------------5-----------5--------5--- 
--------7-----------7-----------------------5-----------5--------------- 
--0--5-----------5--------------------0--3-----------3------------------ 
Riff 1 (THIS IS NOT RIGHT, good enough though) 
---------------- 
---------------- 
---------------- 
-----7------5--- 
-----5------3--- 
---------------- 
Riff 2 w/keyboard In background 
------------------------- 
------------------------- 
------------------------- 
---6-----9----5---10----- 
---4-----7----3---8------ 
------------------------- 
Keyboard w/"damned woman..."(this sounds nothing like the keyboard so don´t bitch) 
-------------------------------------------- 
-------------------------------------------- 
---10--9-------8--7-----7-----6--5---------- 
----------7----------5--------------3--2---- 
-------------------------------------------- 
-------------------------------------------- 
Fill 1 (right before riff 3) 
--------------- 
--------------- 
--------------- 
---66666666---- 
---44444444---- 
--------------- 
  pm....... 
Riff 3 
------------------------------------------------------------------ 
------------------------------------------------------------------ 
------------------------------------------------------------------ 
--6----6---6-----9---9---9------5----5---5-----10---10---10------- 
--4444444444444--777777777777---3333333333333---88888-8888-8888--- 
------------------------------------------------------------------ 
   pm.. ..  ...   ..  ..  ..     ..   ..  ..     ..    ..   .. 
Riff 4 
-------------------------------------------- 
-------------------------------------------- 
-------------------------------------------- 
--------10---------7--------5----7--9--10v-- 
---7-7--------5-5------3-3------------------ 
--------------------------------------------  
Riff 5 
------------------------------------ 
------------------------------------ 
------------------------------------ 
-------10--10-9--7-9-7--7--5-------- 
---7-7------------------------7-9--- 
------------------------------------- 
Keyboard Bridge 
----------------------------------------------------------------------------- 
----------------------------------------------------------------------------- 
--------------5------------7--5--4---5---------------3----------------------- 
-----------7------------7-------------------------5------------3---------5--- 
--------7------------7-------------------------5------------3---------5------ 
--0--5------------5----------------------0--3------------1---------3--------- 
Riff 6(Funny timing) 
----------------------------------------------------------------------- 
----------------------------------------------------------------------- 
----------------------------------------------------------------------- 
--7--7--10--9--7-9-7---7--10-9--7-9---3-3-5-3--3-3--0--0-0------------- 
------------------------------------------------------------3--1--0---- 
----------------------------------------------------------------------- 
Riff 7 ??????? variation of riff 6 
----------------------------------------------------- 
----8-8--10-9--8---8-8--10-9--8---11-11--13-12--12v-- 
----7-7--9--8--7---7-7--9--8--7---10-10--11-10------- 
----------------------------------------------------- 
----------------------------------------------------- 
----------------------------------------------------- 


Текст, аккорды и табулатура для песни "A Succubus In Rapture", исполняет "Dimmu Borgir".
Используемые в песне аккорды можно найти в разделе Как брать аккорды. Аккорды для шестиструнной гитары. Другие песни можно найти на нашем сайте, воспользовавшись алфавитным указателем вверху страницы.


 
Ошибка в тексте? Выделите ошибку и нажмите Ctrl+Enter