Band: Diecast
Song: Undo the Wicked

Tabber: John Cukras
AIM: sanguinarylord

tuning: C G C F A D

Riff 1:
D-----------------------------|----------------------------------------
A-----------------------------|----------------------------------------
F-----------------------------|----------------------------------------
C-------5/7-7/5-5/7-----------|--------5/7----7/5-5/7------------------
G-0000------------------------|--0000------00-----------------0000000-0
C-0000----------------- x's 4-|--0000------00-------- x's 3---0000000-0
pm....                           ....      ..                 ....... .

Riff 2:  Part A                 Part B
D--------------------------|-------------------------
A--------------------------|-------------------------
F--------------------------|-------------------------
C-------5/7-7/5-5/7--------|--------12/14-14/12-12/14
G-00000------------- x's 4-|-00000-------------------
C-00000--------------------|-00000------------------- x's 4
pm.....                      .....

Riff 3:
D------------------
A------------------
F------------------
C------------------
G-00000-5/7-7/5-5/7
C-00000-5/7-7/5-5/7   x's 12
pm.....

Riff 4:  Part A                         Part B                  Part C
D--------------------------------|-------------------------|---------------------------------------------
A--------------------------------|-------------------------|---------------------------------------------
F--------------------------------|-------------------------|---------------------------------------------
C--------------------------------|-------------------------|--------------------------------7-8-7-5------
G-111-11-1-11-111-111-11-1-3-5-3-|111-11-1-11-111-111-11-1-|111-11-1-11-111-111-11-1--5-7-8---------8-7-5
C-111-11-1-11-111-111-11-1-------|111-11-1-11-111-111-11-1-|111-11-1-11-111-111-11-1--------------------- Then Part B

Riff 2 Part A once

Riff 3 x's 8

Riff 4

Riff 2 part A once

Riff 3 x's 8

Riff 5:   Part A                                           Part B
D----------------------------------------------------|--------------------------------------------------
A----------------------------------------------------|--------------------------------------------------
F----------------------------------------------------|--------------------------------------------------
C----------------------------------------------------|--------------------------------------------------
G-------5-9--------9-7--------------5-9--------999-7-|-------5-9--------9-7---------------5-9--------0-0
C-00000-5-9-000000-9-7 x's 3--00000-5-9-000000-999-7-|-00000-5-9-000000-9-7 x's 3--000000-5-9-000000-0-0
pm.....     ......            .....     ......         .....     ......            ......     ...... . .

Riff 6: Other guitar sounds like it's doing something, but god knows what.
D-----------------------------------------------------------------------------------------------
A-----------------------------------------------------------------------------------------------
F-----------------------------------------------------------------------------------------------
C-----------------------------------------------------------------------------------------------
G-0--0--1--1--0--0--1-1-1---0-1-2-0-5-4-3-4-0-1-2-0-4-3-2--------0-1-2-0-5-4-3-4-0-1-2-0-4-3-222
C-0--0--1--1--0--0--1-1-1---0-1-2-0-5-4-3-4-0-1-2-0-4-3-2 x's 7 -0-1-2-0-5-4-3-4-0-1-2-0-4-3-222
pm      .  .        . . .                                                                    ...

Riff 4 Part B x's 2 , Part C , Part B x's 6 , pause Then Part B again.


Текст, аккорды и табулатура для песни "Undo The Wicked", исполняет "Diecast".
Используемые в песне аккорды можно найти в разделе Как брать аккорды. Аккорды для шестиструнной гитары. Другие песни можно найти на нашем сайте, воспользовавшись алфавитным указателем вверху страницы.


 
Ошибка в тексте? Выделите ошибку и нажмите Ctrl+Enter