Band: Diecast
Song: Plague

Tabber: John Cukras
Email: [email protected]

Tuning: C G C F A D

Riff 1:
D------------------------
A------------------------
F------------------------
C------------------------
G-2/1-------2/1----------
C-2/1-00-00-2/1-0-1-2-3-0  x's 4
pm    .. ..     . . . . .

Riff 2:
D------------
A------------
F------------
C------------
G---------2/1
C-0-0-1-0-2/1  x's 8
pm. . . .

Riff 1 x's 4

Riff 3:
D-------------------------------
A-------------------------------
F-3--4--------------------------
C-1--2--------------------------
G---------------2/1----------2/1
C-------0-0-1-0-2/1--0-0-1-0-2/1  x's 4
pm      . . . .      . . . .

Riff 4:
D------------------------------------------------------
A------------------------------------------------------
F-----------------------------------------------2------
C-----------------4-5-7-8-9-6-------------------2------
G-1----1-1--------2-3-5-6-7-4--1----1-1----------------
C-1-00-1-1-x's 3---------------1-00-1-1 x's 3------0000  x's 3
pm  ..                           ..                ....

Riff 5:
D-----------------------------------
A-----------------------------------
F-----------------------------------
C----4----33------------------------
G----2----11--------1-2-3-4---------
C-00---00--- x's 3-----------4-3-2-1  x's 5
pm..   ..           . . . .  . . . .

Riff 6:
D----------------------------------
A----------------------------------
F-3--4-----------------------2-----
C-1--2-----------------------2-----
G------1-1-1-1-1-1-1---------------
C------1-1-1-1-1-1-1 x's 4-----0000
pm                             ....

Riff 4 x's 3

Riff 5 x's 5

Outro:
D--------------------------
A--------------------------
F-------------------2------
C----4----33--------2------
G----2----11---------------
C-00---00--- x's 3-----0000
pm..   ..              ....


Текст, аккорды и табулатура для песни "Plague", исполняет "Diecast".
Используемые в песне аккорды можно найти в разделе Как брать аккорды. Аккорды для шестиструнной гитары. Другие песни можно найти на нашем сайте, воспользовавшись алфавитным указателем вверху страницы.


 
Ошибка в тексте? Выделите ошибку и нажмите Ctrl+Enter