Band: Diecast
Song: Opression

Tabber: John Cukras
Email: [email protected]

Tuning: C G C F A D

Riff 1:
D--------------------------------------------------------
A--------------------------------------------------------
F--------------------------------------------------------
C----------------------3 x's 12--------------------------
G----------------------1----------3-2-1--1-2-3-4--3-2-1--
C-1-2-3-2-1-0-1-2-3-00------------3-2-1--1-2-3-4--3-2-1--
pm                  ..

Riff 2:
D-----------------------------
A-----------------------------
F-----------------------------
C-----------------------------
G---------2-3-2---------2-3-2-
C-0000-00-2-3-2-00-0000-2-3-2-
pm.... ..       .. ....

Riff 3:
D--------------------------------------------------------------------------
A--------------------------------------------------------------------------
F--------------------------------------------------------------------------
C--------------------------------------------------------------------------
G------------------22222-11111---------------------------------------------
C-0-0-0-0-0-0-0-0--22222-11111 x's 4--22222-11111 x's 4--22222-11111 x's 4-
pm. . . . . . . .                     ..... .....

Riff 2

Riff 3

Riff 2

Riff 4:
D-----------------------------
A-----------------------------
F-----------------------------
C-----------------------------
G------3-2------3-2-----------
C-0000-3-2-00-0-3-2-----------
pm....     .. .

Riff 5:
D--------------------
A--------------------
F--------------------
C--------------------
G-3-2-1-4-3-2 x's 4--
C-3-2-1-4-3-2--------

Riff 3 (without pm's in front and the very last 22222-11111 part)

Riff 2

Riff 6: After riff 2 a few times
D----------------------------------------------------------
A----------------------------------------------------------
F----------------------------------------------------------
C----------------------------------------------------------
G--------------------------------3---3---3---3---3---3---3-
C-000-000-000-000-000-000-000-00-3-0-3-0-3-0-3-0-3-0-3-0-3-
pm... ... ... ... ... ... ... ..   .   .   .   .   .   .


Текст, аккорды и табулатура для песни "Oppression", исполняет "Diecast".
Используемые в песне аккорды можно найти в разделе Как брать аккорды. Аккорды для шестиструнной гитары. Другие песни можно найти на нашем сайте, воспользовавшись алфавитным указателем вверху страницы.


 
Ошибка в тексте? Выделите ошибку и нажмите Ctrl+Enter