Band: Diecast
Song: Labled Unity

Tabber: John Cukras
Email: [email protected]

Tuning: C G C F A D

Riff 1:
D-----------------------------
A-----------------------------
F-----------------------------
C---11/9-11/9-----------------
G-0--9/7--9/7---------------0-
C-0-----------00-00-00-0000-0-
pm            .. .. .. ....

Riff 2:
D-----------------------------
A-----------------------------
F-----------------------------
C-----9/11/9-7-5-7-7/9--------
G-----7/9/7--5-3-5-5/7--------
C-00--------------------------
pm..

Riff 3:
D----------------------------------
A----------------------------------
F----------------------------------
C----------------------------------
G-0-1---1-0000000-3-5-3----1----2--
C-0-1---1-0000000-3-5-3-00-1-00-2--
pm        .......       ..   ..

Riff 4:
D-------------------
A-------------------
F-------------------
C-5-7-5-------------
G-3-5-3----1----2---
C-------00-1-00-2---
pm      ..   ..


Текст, аккорды и табулатура для песни "Labled Unity", исполняет "Diecast".
Используемые в песне аккорды можно найти в разделе Как брать аккорды. Аккорды для шестиструнной гитары. Другие песни можно найти на нашем сайте, воспользовавшись алфавитным указателем вверху страницы.


 
Ошибка в тексте? Выделите ошибку и нажмите Ctrl+Enter