Band: Diecast
Song: Final Word

Tabber: John Cukras
AIM: sanguinarylord

Tuning: C G C F A D

Riff 1: A  Guitar 1  B         Guitar 2
D----------|----------------|-------------------
A----------|----------------|-------------------
F----------|----------------|-------------------
C----------|----------------|-7-9-8-9-10-6-7-8-6 x's 12
G-00-------|-00-0-00--------|-------------------
C-00 x's 4-|-00-0-00 x's 4--|-------------------
pm..              ..

Riff 2:  Part A                       Part B
D------------------------------|-------------------------------------------
A------------------------------|-------------------------------------------
F------------------------------|-------------------------------------------
C------------------------------|-------------------------------------------
G-000-000-000-0-000-2-1--------|---000000000000-2-1---------000000000-0-0-5
C-000-000-000-0-000-2-1 x's 8 -|---000000000000-2-1 x's 3 --000000000-0-0--
pm... ... ...   ...                ............             ......... . .

Riff 3:  Fourth and Fifth time, pm-ing is sped up like this  ^ 
D--------------------------------------------------------------------------------------------------
A--------------------------------------------------------------------------------------------------
F--------------------------------------------------------------------------------------------------
C----------------------------------------3-2-1-----------------------------------------------------
G-000-000-000-0-000--------000-000-000-0---------000-000-000-0-000--------000-000-000-0------------
C-000-000-000-0-000-2-1-2--000-000-000-0---------000-000-000-0-000-2-1-2--000-000-000-0-6-5-4-3-2-1  x's 5
pm... ... ...   ...        ... ... ...           ... ... ...   ...        ... ... ...   

Riff 4:                                            xxxxx  xxxxxx    xxxxxx xxxxxx 


Текст, аккорды и табулатура для песни "Final Word", исполняет "Diecast".
Используемые в песне аккорды можно найти в разделе Как брать аккорды. Аккорды для шестиструнной гитары. Другие песни можно найти на нашем сайте, воспользовавшись алфавитным указателем вверху страницы.


 
Ошибка в тексте? Выделите ошибку и нажмите Ctrl+Enter