Band: Diecast
Song: Courage To Be

Tabber: John Cukras
Email: [email protected]

Tuning: C G C F A D

Riff 1: Two Guitars.
D---------------------------------------------------------------------------------------------------
A-5-777777-5-77777-5-77777-5-77777------7-6---------------------------------------------------------
F----------------------------------6-5----------------------------9----9----------------------------
C---------------------------------------------------------------------------------------------------
G----------------------------------------------2----------------------------------------------------
C----------------------------------------------2---00-00-00----00---00---00--------000000000-00-000-
pm                                                 .. .. ..    ..   ..   ..                  .. ...

Riff 2: 
D---------------------
A---------------------
F---------------------
C---------------------
G---------------2/3---
C-0000-00-00-00-2/3---
pm.... .. .. ..

Riff 3:
D--------17-16-14---------------------------------------
A-------------------------------------------------------
F-------------------------------------------------------
C-------------------------------------------------------
G-0-----------------5-5/7----------5-5/7-0-------5-5/7--
C-0-00--------------5-5/7-00-------5-5/7-0-00-00-5-5/7--
pm  ..                    ..               .. ..
                                   
Riff 2

Riff 3

Riff 4:
D---------------------------------------------------------------------------------------------------
A-----------------------------8-8-88-7-7-77-6-5-4-----------------------12-12-1212-10-10-1010-9-8-7-
F--------------5-5-55-7-7-77-----------------------------5-5-55-7-7-77------------------------------
C---------------------------------------------------------------------------------------------------
G-----3/1/3-----------------------------------------------------------------------------------------
C-000-3/1/3-----------------------------------------------------------------------------------------
pm...

Riff 5: begins with 4 notes at end of solo type thing.
D------------------------------------
A------------------------------------
F------------------------------------
C---------------------------555-777--
G-----------00000-0000-0000-333-555--
C-0-0-0-0---00000-0000-0000----------
pm. . . .   ..... .... ....

Riff 6:
D-----------------------------------------------------------------------------------
A-----------------------------------------------------------------------------------
F-----------------------------------------------------------------------------------
C-------9---5---------7--------9-7---------5-7-9-----5--------7--------9-7----------
G-0-7-3-7---3---------5--------7-5---------3-5-7-----3--------5--------7-5----------
C-0-7-3--------00000----00000------000000---------------0000-----00000------000000--
pm             .....    .....      ......               ....     .....      ......

Riff 7:
D-----------------------------
A-----------------------------
F-----------------------------
C-6-4-3-7--5-7-8--------------
G-4-2-1-5--3-5-6--------------
C-----------------00-00-00-00
pm                .. .. .. ..

Riff 5


Текст, аккорды и табулатура для песни "Courage To Be", исполняет "Diecast".
Используемые в песне аккорды можно найти в разделе Как брать аккорды. Аккорды для шестиструнной гитары. Другие песни можно найти на нашем сайте, воспользовавшись алфавитным указателем вверху страницы.


 
Ошибка в тексте? Выделите ошибку и нажмите Ctrl+Enter