Quelle/source: http://www.hosentabs.ch.vu


Was zднlт


h = hammering
p = pull of
[]= muted
b = bending
r = release


Der mittlere Part bleibt immer gleich
Anfang und Schluss (immer auf Em) variieren!

The part in the middle stays the same, but the beginning and the end are changing!

Mittelteil:
    Am                     C                     Em
E |------------------------------------------------------------------|
H |------------------------------------------------------------------|
G |--------------------7---------------------5---5--[5]-5p4-5p4--4-(4)
D |--9--[9]-9p7-9-5--5-----5--[5]-5p4-5p4--4-------------------------|
A |------------------------------------------------------------------|
E |------------------------------------------------------------------|



[Intro]

E |-----------------|--------------|--6h7--------------------|
H |-----------------|--------------|------7h8----------------|
G |-----------------|--Mittelteil--|----------8h9------------|
D |--7h9-7-9-m9-9---|--------------|--------------7h9--------|
A |-----------------|--------------|-------------------------|
E |-----------------|--------------|-------------------------|

E |-----------------|--------------|-------------------------|
H |-----------------|--------------|-------------------------|
G |--------------9--|--Mittelteil--|-------------------------|
D |--7h9--7h9--9----|--------------|--5--[5]-5p4-5p4-4br-4br-|
A |-----------------|--------------|-------------------------|
E |-----------------|--------------|-------------------------|



[1.Strophe]

E |-----------------|--------------|-------------------------|
H |-----------------|--------------|--7h8--------------------|
G |--------9--[9]-9-|--Mittelteil--|------8h9----------------|
D |--7h9p7----------|--------------|----------9h10-7h9-------|
A |-----------------|--------------|--------------------7----|
E |-----------------|--------------|-------------------------|

E |-----------------|--------------|-------------------------|
H |-----------------|--------------|-------------------------|
G |--------9--[9]-9-|--Mittelteil--|-------------------------|
D |--7h9p7----------|--------------|--5--[5]-5p4-5p4-4br-4br-|
A |-----------------|--------------|-------------------------|
E |-----------------|--------------|-------------------------|

                Em                 C
Gib mir was zu trinken, ich habe Durst
             Am                           Em
Ich kam den ganzen Weg allein und bin zu Fuss
                   Em               C
Jeden einzelnen Schritt, Meter fьr Meter
         Am                                  Em
Von irgendwo da draussen, ganz weit weg von hier

E |------------------------------------------------------|
H |------------------------------------------------------|
G |--9-9--9-9--9-9--9-9--9--9--5-5--5-5--5-5--5-5--5--5--|
D |--9-9--9-9--9-9--9-9--9--9--5-5--5-5--5-5--5-5--5--5--|
A |--7-7--7-7--7-7--7-7--7--7--3-3--3-3--3-3--3-3--3--3--|
E |------------------------------------------------------|

E |------------------------------------------------------|
H |------------------------------------------------------|
G |------------------------------------------------------|
D |--7-7--7-7--7-7--7-7--7--7--2-2--2-2--2-2--2-2--2--2--|
A |--7-7--7-7--7-7--7-7--7--7--2-2--2-2--2-2--2-2--2--2--|
E |--5-5--5-5--5-5--5-5--5--5--0-0--0-0--0-0--0-0--0--0--|

                   Em                                   C
Ich bin durch das Meer geschwommen, hab von Wasser und Salz gelebt
            Am                                Em
nur um hierher zu kommen und dich endlich zu sehen
                  Em                   C
Ich war in jeder Wьsте, die man sich denken kann
               Am                           Em
War fast dran aufzugeben, sтдndig weiterzuziehen



[2.Strophe]

   1.Gitarre
E |-----------------|--------------|--6h7--------------------|
H |-----------------|--------------|------7h8----------------|
G |--------------9--|--Mittelteil--|----------8h9------------|
D |--7h9--7h9--9----|--------------|--------------7h9--------|
A |-----------------|--------------|-------------------------|
E |-----------------|--------------|-------------------------|

E |-----------------|--------------|-------------------------|
H |-----------------|--------------|-------------------------|
G |--------9--m9-9--|--Mittelteil--|-------------------------|
D |--7h9p7----------|--------------|--5--m5-5p4-5p4-4br-4br--|
A |-----------------|--------------|-------------------------|
E |-----------------|--------------|-------------------------|

   2.Gitarre
E |--0-3---0--------0-3-------------0-5-----------0-3-------:|
H |-----------------------3---------------------------------:|
G |---------------------------------------------------------:|
D |---------------------------------------------------------:|
A |---------------------------------------------------------:|
E |---------------------------------------------------------:|

                     Em                   C
Ich hab mich oft verlaufen, war viel zu lange blind
             Am                         Em
Ьвеrаll und nirgendwo suchte ich nach dir


E |------------------------------------------------------|
H |------------------------------------------------------|
G |--9-9--9-9--9-9--9-9--9--9--5-5--5-5--5-5--5-5--5--5--|
D |--9-9--9-9--9-9--9-9--9--9--5-5--5-5--5-5--5-5--5--5--|
A |--7-7--7-7--7-7--7-7--7--7--3-3--3-3--3-3--3-3--3--3--|
E |------------------------------------------------------|

E |------------------------------------------------------|
H |------------------------------------------------------|
G |------------------------------------------------------|
D |--7-7--7-7--7-7--7-7--7--7--2-2--2-2--2-2--2-2--2--2--|
A |--7-7--7-7--7-7--7-7--7--7--2-2--2-2--2-2--2-2--2--2--|
E |--5-5--5-5--5-5--5-5--5--5--0-0--0-0--0-0--0-0--0--0--|

               Em                 C
Und ich lief Jahrelang durch den Regen
            Am                                     Em
Oder ob es Тrдnеn waren? Ich weiss es heute nicht mehr



[Refrain] (PowerChords, Achtel angeschlagen)

                         Em                         G
Doch wenn nur die Liebe zднlт, wenn nur die Liebe zднlт
              Am                              C     H
werd ich den selben Weg noch einmal fьr dich gehn
                    Em                         G
Wenn nur die Liebe zднlт, wenn nur die Liebe zднlт
              Am                             C    H
dann ist mir kein Preis zu hoch um dich zu sehen



[Zwischenspiel]

   1.Gitarre
E |---------------------------------------|
H |---------------------------------------|
G |-----------5---------------------------|
D |--2--------5--------7--------2---------|
A |--2--------3--------7--------2---------|
E |--0-----------------5--------0---------|

   2.Gitarre
E |--0-3------0-3------0-5------0-3-------|
H |---------------------------------------|
G |---------------------------------------|
D |---------------------------------------|
A |---------------------------------------|
E |---------------------------------------|



[3.Strophe]

E |-----------------|--------------|--6h7--------------------|
H |-----------------|--------------|------7h8----------------|
G |--------------9--|--Mittelteil--|----------8h9------------|
D |--7h9--7h9--9----|--------------|--------------7h9--------|
A |-----------------|--------------|-------------------------|
E |-----------------|--------------|-------------------------|

E |-----------------|--------------|-------------------------|
H |-----------------|--------------|-------------------------|
G |--------9--m9-9--|--Mittelteil--|-------------------------|
D |--7h9p7----------|--------------|--5--m5-5p4-5p4-4br-4br--|
A |-----------------|--------------|-------------------------|
E |-----------------|--------------|-------------------------|

               Em                      C
Siehst du die Tasche, die ich mit mir trage
                  Am                Em
Da ist meine Geschichte und mein ganzes Leben drin


E |------------------------------------------------------|
H |------------------------------------------------------|
G |--9-9--9-9--9-9--9-9--9--9--5-5--5-5--5-5--5-5--5--5--|
D |--9-9--9-9--9-9--9-9--9--9--5-5--5-5--5-5--5-5--5--5--|
A |--7-7--7-7--7-7--7-7--7--7--3-3--3-3--3-3--3-3--3--3--|
E |------------------------------------------------------|

E |------------------------------------------------------|
H |------------------------------------------------------|
G |------------------------------------------------------|
D |--7-7--7-7--7-7--7-7--7--7--2-2--2-2--2-2--2-2--2--2--|
A |--7-7--7-7--7-7--7-7--7--7--2-2--2-2--2-2--2-2--2--2--|
E |--5-5--5-5--5-5--5-5--5--5--0-0--0-0--0-0--0-0--0--0--|

                      Em                 C
Du kannst sie mir wegnehmen und sie verbrennen
                  Am                   Em
Sie ist voller Erinnerungen, die ich nicht mehr haben will
                       Em                     C
Fьr mich ist gestern wertlos und morgen ganz egal
            Am                    Em
solange du mir versprichst, dass du mich halten kannst



[Refrain] (PowerChords, Achtel angeschlagen)

                    Em                         G
Wenn nur die Liebe zднlт, wenn nur die Liebe zднlт
              Am                              C     H
werd ich den selben Weg noch einmal fьr dich gehn
                    Em                         G
Wenn nur die Liebe zднlт, wenn nur die Liebe zднlт
              Am                      C    H
werd ich dir folgen bis ans Ende der Welt



[Solo] (PowerChords)

     Am            G             Em           D       C
E |------------------------------------------------------|
H |--5----5----5---5----5----5---5----5----5--7----7--8--|
G |-----7--------7----7--------7----7--------------------|
D |------------------------------------------------------|
A |------------------------------------------------------|
E |------------------------------------------------------|
     Am            G             Em         D
E |------------------------------7--5-7---7-9--9--9--9---|
H |--5----5----8-7-8--7-8----8-7-8--7-8---8-9--9--9--9---|
G |-----7------------------------------------------------|
D |------------------------------------------------------|
A |------------------------------------------------------|
E |------------------------------------------------------|
      C
E |--12--12--12--12----|
H |--12--12--12--12----|
G |--------------------|
D |--------------------|
A |--------------------|
E |--------------------|



[Bridge]

E |------------------------------------------------------|
H |------------------------------------------------------|
G |--9-9--9-9--9-9--9-9--9--9--5-5--5-5--5-5--5-5--5--5--|
D |--9-9--9-9--9-9--9-9--9--9--5-5--5-5--5-5--5-5--5--5--|
A |--7-7--7-7--7-7--7-7--7--7--3-3--3-3--3-3--3-3--3--3--|
E |------------------------------------------------------|

E |------------------------------------------------------|
H |------------------------------------------------------|
G |------------------------------------------------------|
D |--7-7--7-7--7-7--7-7--7--7--2-2--2-2--2-2--2-2--2--2--|
A |--7-7--7-7--7-7--7-7--7--7--2-2--2-2--2-2--2-2--2--2--|
E |--5-5--5-5--5-5--5-5--5--5--0-0--0-0--0-0--0-0--0--0--|

                  Em                       C
Ich mцснте gern glauben was in der Bibel steht
                    Am                         Em
und was man uns in jeder Fernsehshow einreden will
            Em                   C
Lass es am Ende nicht darauf ankommen
             Am                       Em
ob man der Sieger oder der Verlierer ist



[Refrain] (PowerChords, Achtel angeschlagen)

Sologitarre: ???

                     Em                         G
Weil nur die Liebe zднlт, wenn nur die Liebe zднlт
              Am                              C     H
werd ich den selben Weg noch einmal fьr dich gehn
                     Em                         G
Weil nur die Liebe zднlт, wenn nur die Liebe zднlт
              Am                      C    H
werd ich dir folgen bis ans Ende der Welt


     Em       G
Hehehey, Hehehey
         Am                             C   H   Em
Mir ist kein Preis zu hoch um dich zu sehen


Текст, аккорды и табулатура для песни "Was Zihlt", исполняет "Die Toten Hosen".
Используемые в песне аккорды можно найти в разделе Как брать аккорды. Аккорды для шестиструнной гитары. Другие песни можно найти на нашем сайте, воспользовавшись алфавитным указателем вверху страницы.


Слушать онлайн Was zählt


La-Le-LuWas zählt на Яндекс.Музыке


 
Ошибка в тексте? Выделите ошибку и нажмите Ctrl+Enter