Вступление - играть 2 раза
(0:30-1:10)

         Hm            F#              Em          G             F# 
e-------------------------------------------------------|
h|-------3-------3-2-0-2-----0h1p0-2-3-0-0h1p0-2-3-0-3/5--3h5p3-2-2-|
g-------------------------------------------------------|
d|--3/5-------5-----------------------------------------------------|
a-------------------------------------------------------|
E-------------------------------------------------------|


играть 2 раза
(1:14-1:55)

  Em           Hm           A                G               F#
e-----------------0-0-0-2-0h2p0------------------------|
h----------------2-2-2-------------3-3-3-5-5p4p3-2-3-2-|
g|--4-4-4-4-----------------------------------4-4-4----------------|
d|-5-5-5-5-------4-4-4-4-------------------------------------------|
a---5-5-5-5--------------------------------------------|
E------------------------------------------------------|

часть 2
играть 2 раза
(1:56-2:34)
        Hm           F#          Em          G               F#
e|------10----10-9-7-9--5/7-9-10-7--5/7-9-10-7-7/12-10-9h10p9-9-|
h|-5/7------7---------------------------------------------------|
g---------------------------------------------------|
d---------------------------------------------------|
a---------------------------------------------------|
E---------------------------------------------------|

(2:40-3:00)
играть 2 раза
   Em        Hm         A               G              F#
e|--7-7-7-7----2-2-2-2---0-0-0-2-0h2p0----------------------------------------|
h|-8-8-8-8----3-3-3-3---2-2-2------------3-3-3-5-5p4p3-2--5-3p2---------------|
g---------------------------4-4-4-------------------4p3p0---------|
d---------------------------------------------------------5-4-4---|
a-----------------------------------------------------------------|
E-----------------------------------------------------------------|


Текст, аккорды и табулатура для песни "Румба", исполняет "Дидюля Валерий".
Используемые в песне аккорды можно найти в разделе Как брать аккорды. Аккорды для шестиструнной гитары. Другие песни можно найти на нашем сайте, воспользовавшись алфавитным указателем вверху страницы.


 
Ошибка в тексте? Выделите ошибку и нажмите Ctrl+Enter