E  E  E  E  E  E  E  E     E  E  E  E  E  E  E  E   
E||---2-----2--2-----2--2-----|--2-----0--------0--------|
B||------5--------5--------5--|-----3-----0--5-----5--3--|
G||*--------------------------|--------------------------|
D||*--------------------------|--------------------------|
A||---2-----------------------|--------------4--------2--|
E||------------5--------3-----|--------------------------|


  E  E  E  E  E  E  E  E     E  E  E  E  E  E  E  E   
--0--------0-----------0--|-----0-----------0-----0--|
-----3--2-----2-----2-----|--------0-----0-----------|
-----------------0--------|--2--------2--------4-----|
--------------------------|--------------------------|
--------1-----------------|--------------------------|
--------------------------|--2-----------------3-----|


  E  E  E  E  E  E  E  E     S  S  E  E  E  E  E  E  E     
-----------0-----------3--|--2h-3p-2-----------0---------||
--0-----0-----------0-----|-----------------2-----2------||
-----0-----------0--------|--------------2-----------2--*||
--------------------------|-----------------------------*||
--------------------------|-----------0------------------||
--------------0--------0--|------------------------------||


  E  E  E  E  E  E  E  E     E  E  E  E  E  E  E  E   
--------------------------|--------------------------|
-----------3--------------|-----3-----------------3--|
--------0-----0-----------|--0-----0-----------0-----|
-----4-----------4-----4--|-----------4-----4--------|
--2-----------------2-----|--------------0-----------|
--------------------------|--------------------------|


  E  E  E  E  E  E  E  E     E  E  E  E  E  E  E  E   
--------------------------|--------------------------|
-----------------3--------|-----------3--------------|
--0-----------0-----0-----|--------0-----0-----------|
-----4-----4-----------4--|-----4-----------4-----4--|
--------0-----------------|--------------------------|
--------------------------|--3-----------------3-----|


  E  E  E  E  E  E  E  E     E  E  E   T  T T H        T  
--------------------------|------------------------------|
-----3-----------------0--|--0--2--3p--2h-3-2-0----------|
--0-----0-----------0-----|------------------------------|
-----------4-----2--------|------------------------------|
--------------------------|------------------------------|
--------------0-----------|------------------------------|


  ^                  ^                     ^             
  E  S S E  E  E  E  E  S S    E  E  E  E  E  S S E  E   
--2--2-2-2--2--2--2--2--2-2-|--2--2--2--2--5--5-5-5--5--|
--3--3-3-3--3--3--3--3--3-3-|--3--3--3--3--5--5-5-5--5--|
--4--4-4-4--4--4--4--4--4-4-|--4--4--4--4--6--6-6-6--6--|
--4--4-4-4--4--4--4--4--4-4-|--4--4--4--4--7--7-7-7--7--|
--2--2-2-2--2--2--2--2--2-2-|--2--2--2--2--7--7-7-7--7--|
--2--2-2-2--2--2--2--2--2-2-|--2--2--2--2--5--5-5-5--5--|


        ^                     ^                  ^       
  E  E  E  S S E  E  E  E     E  S S E  E  E  E  E  S S  
--5--5--5--5-5-5--5--5--5--|--3--3-3-3--3--3--3--3--3-3-|
--5--5--5--5-5-5--5--5--5--|--3--3-3-3--3--3--3--3--3-3-|
--6--6--6--6-6-6--6--6--6--|--4--4-4-4--4--4--4--4--4-4-|
--7--7--7--7-7-7--7--7--7--|--5--5-5-5--5--5--5--5--5-5-|
--7--7--7--7-7-7--7--7--7--|--5--5-5-5--5--5--5--5--5-5-|
--5--5--5--5-5-5--5--5--5--|--3--3-3-3--3--3--3--3--3-3-|


              ^                                            
  E  E  E  E  E  S S E  E     E  E  E   T  T T H        T  
--3--3--3--3--0--0-0-0--0--|------------------------------|
--3--3--3--3--0--0-0-0--0--|--0--2--3p--2h-3-2-0----------|
--4--4--4--4--0--0-0-0--0--|------------------------------|
--5--5--5--5--2--2-2-2--2--|------------------------------|
--5--5--5--5--2--2-2-2--2--|------------------------------|
--3--3--3--3--0--0-0-0--0--|------------------------------|


  E  E  E  E  E  E  E  E     E  E  E  E  E  E  E  E   
--7-----------0--------0--|--------0-----5-----------|
-----8-----8-----0--------|--0--------0-----7-----7--|
--------9-----------7-----|-----6--------------7-----|
--------------------------|--------------0-----------|
--------------------------|--------------------------|
--0-----------------5-----|-----5--------------------|


  E  E  E  E  E  E  E  E     E  S  S  E  E  E  E  E  E   
--0--------0--------0-----|--3--2h-3p-2--------0--------|
-----0--------0--------0--|--------------3--------------|
--------5--------4--------|-----------------4--------3--|
--------------------------|-----------------------------|
--------------------------|-----------------------------|
--------3--------3--------|--0--------------------2-----|


  E  E  E  E  E  E  E  E     E  E  E  E  E  E  E  E   
-----2-----------0--------|--0--------0-----------0--|
--2-----2-----3-----3--5--|-----5--7-----7-----7-----|
-----------3--------------|-----------------0--------|
--------------------------|--------------------------|
--------------2--------4--|--------5-----------------|
--------------------------|--------------------------|


  E  E  E  E  E  E  E  E     E  E  E  E  E  E  E  E   
--7-----------0--------0--|--------0-----5-----------|
-----8-----8-----0--------|--0--------0-----7-----7--|
--------9-----------7-----|-----6--------------7-----|
--------------------------|--------------0-----------|
--------------------------|--------------------------|
--0-----------------5-----|-----5--------------------|


  E  E  E  E  E  E  E  E     E  S  S  E  E  E  E  E  E   
--0--------0--------0-----|--3--2h-3p-2--------0--------|
-----0--------0--------0--|--------------3--------------|
--------5--------4--------|-----------------4--------3--|
--------------------------|-----------------------------|
--------------------------|-----------------------------|
--------3--------3--------|--0--------------------2-----|


  E  E  E  E  E  E  E  E     E  E  E  E  E  E  E  E   
-----2-----------0--------|--0--------0-----------0--|
--2-----2-----3-----3--5--|-----5--3-----3-----3-----|
-----------3--------------|-----------------0--------|
--------------------------|--------------------------|
--------------2--------4--|--------2-----------------|
--------------------------|--------------------------|


  Q    E  E  S S E  E  E     E  E  E  E  Q    E  E   
--3----3--3--2-3-2--------|-----2-------------------|
--------------------------|--2-----2-----7----7--7--|
-----------------------3--|-----------3--7----7--7--|
--------------------------|-------------------------|
--------------------------|-------------------------|
--0-----------------2-----|--------------7----------|


  E   E  E  E  E  E  E  E     Q    E  E  E   E  E  E   
------------------3--------|--------------------------|
--5p--3--------3-----3-----|--5----5--5--3p--2--------|
--6---4-----4-----------4--|--4----4--4--4---3-----3--|
---------------------------|--------------------------|
---------------------------|--------------------------|
---------3-----------------|--0-----------------2-----|


  E  E  E  E  E  E  E  E     E  E  E  E  E  E  E  E   
-----2-----------0--------|--0--------0-----------0--|
--2-----2-----3-----3--5--|-----5--7-----7-----7-----|
-----------3--------------|-----------------0--------|
--------------------------|--------------------------|
--------------2--------4--|--------5-----------------|
--------------------------|--------------------------|


  Q    E  E  S S E  E  E     E  E  E  E  Q    E  E   
--3----3--3--2-3-2--------|-----2-------------------|
--------------------------|--2-----2-----7----7--7--|
-----------------------3--|-----------3--7----7--7--|
--------------------------|-------------------------|
--------------------------|-------------------------|
--0-----------------2-----|--------------7----------|


  E   E  E  E  E  E  E  E     Q    E  E  E   E  E  E   
------------------3--------|--------------------------|
--5p--3--------3-----3-----|--5----5--5--3p--2--------|
--6---4-----4-----------4--|--4----4--4--4---3-----3--|
---------------------------|--------------------------|
---------------------------|--------------------------|
---------3-----------------|--0-----------------2-----|


  E  E  E  E  E  E  E  E     E  E  E  E  E  E  E  E   
-----2-----------0--------|--0--------0-----------0--|
--2-----2-----3-----3--5--|-----5--3-----3-----3-----|
-----------3--------------|-----------------0--------|
--------------------------|--------------------------|
--------------2--------4--|--------2-----------------|
--------------------------|--------------------------|


    Q    E  E  E  E  Q       Q    E  E   E  E  S  S E   
|---7---------------------|----------------------------|
|--------7--7--7--7--7----|--L----7--8--10--8--7h-8-5--|
|*------------------------|----------------------------|
|*------------------------|----------------------------|
|-------------------------|----------------------------|
|-------------------------|----------------------------|


  E  E  H        S S E     E  S S E  E  S S E  E  S S  
------------------------|-----------------------------|
--7--8--7----------7----|-------5---------3---------2-|
-----------------7---7--|--7--6---6--6--4---4--4--3---|
------------------------|-----------------------------|
------------------------|-----------------------------|
------------------------|-----------------------------|


  E  E  E   E   E  E   E   E     E  E  Q    E  Q    E     
-------------------2h--3h--5--|--3--2--0----L-----------||
--------0h--2h--3-------------|----------------0----L---||
--3--3------------------------|------------------------*||
------------------------------|------------------------*||
------------------------------|-------------------------||
------------------------------|-------------------------||


  E  E  E  E  E  E  E  S S    E  E  E  E  E  E  E  E   
---------------------------|--------------------------|
-----------3---------------|--3--------------------3--|
--------0-----0----------0-|-----0--------------0-----|
-----4-----------4-----4---|--------4--------4--------|
--2--------2--------2------|-----------2--0--------0--|
---------------------------|--------------------------|


  E  E  E  S S E  E  E  E     E  E  E  E  E  E  E  S S  
---------------------------|---------------------------|
---------------3-----------|-----------3---------------|
--0----------0----0--------|--------0-----0----------0-|
-----4-----4---------4-----|-----4-----------4-----4---|
--------0---------------0--|---------------------------|
---------------------------|--3--------3--------3------|


  E  E  E  E  E  E  E  E     E  E  E   T  T T H        T  
--------------------------|------------------------------|
--3--------------------0--|--0--2--3p--2h-3-2-0----------|
-----0--------------0-----|------------------------------|
--------4--------2--------|------------------------------|
--------------------------|------------------------------|
-----------3--0-----------|------------------------------|


  ^                  ^                     ^             
  E  S S E  E  E  E  E  S S    E  E  E  E  E  S S E  E   
--2--2-2-2--2--2--2--2--2-2-|--2--2--2--2--5--5-5-5--5--|
--3--3-3-3--3--3--3--3--3-3-|--3--3--3--3--5--5-5-5--5--|
--4--4-4-4--4--4--4--4--4-4-|--4--4--4--4--6--6-6-6--6--|
--4--4-4-4--4--4--4--4--4-4-|--4--4--4--4--7--7-7-7--7--|
--2--2-2-2--2--2--2--2--2-2-|--2--2--2--2--7--7-7-7--7--|
--2--2-2-2--2--2--2--2--2-2-|--2--2--2--2--5--5-5-5--5--|


        ^                     ^                  ^       
  E  E  E  S S E  E  E  E     E  S S E  E  E  E  E  S S  
--5--5--5--5-5-5--5--5--5--|--3--3-3-3--3--3--3--3--3-3-|
--5--5--5--5-5-5--5--5--5--|--3--3-3-3--3--3--3--3--3-3-|
--6--6--6--6-6-6--6--6--6--|--4--4-4-4--4--4--4--4--4-4-|
--7--7--7--7-7-7--7--7--7--|--5--5-5-5--5--5--5--5--5-5-|
--7--7--7--7-7-7--7--7--7--|--5--5-5-5--5--5--5--5--5-5-|
--5--5--5--5-5-5--5--5--5--|--3--3-3-3--3--3--3--3--3-3-|


              ^                                            
  E  E  E  E  E  S S E  E     E  E  E   T  T T H        T  
--3--3--3--3--0--0-0-0--0--|------------------------------|
--3--3--3--3--0--0-0-0--0--|--0--2--3p--2h-3-2-0----------|
--4--4--4--4--0--0-0-0--0--|------------------------------|
--5--5--5--5--2--2-2-2--2--|------------------------------|
--5--5--5--5--2--2-2-2--2--|------------------------------|
--3--3--3--3--0--0-0-0--0--|------------------------------|


  E  E  E  E  E  E  E  E     E  E  E  E  E  E  E  E   
--7-----------0--------0--|--------0-----5-----------|
-----8-----8-----0--------|--0--------0-----7-----7--|
--------9-----------7-----|-----6--------------7-----|
--------------------------|--------------0-----------|
--------------------------|--------------------------|
--0-----------------5-----|-----5--------------------|


  E  E  E  E  E  E  E  E     E  S  S  E  E  E  E  E  E   
--0--------0--------0-----|--3--2h-3p-2--------0--------|
-----0--------0--------0--|--------------3--------------|
--------5--------4--------|-----------------4--------3--|
--------------------------|-----------------------------|
--------------------------|-----------------------------|
--------3--------3--------|--0--------------------2-----|


  E  E  E  E  E  E  E  E     E  E  E  E  E  E  E  E   
-----2-----------0--------|--0--------0-----------0--|
--2-----2-----3-----3--5--|-----5--7-----7-----7-----|
-----------3--------------|-----------------0--------|
--------------------------|--------------------------|
--------------2--------4--|--------5-----------------|
--------------------------|--------------------------|


  E  E  E  E  E  E  E  E     E  E  E  E  E  E  E  E   
--7-----------0--------0--|--------0-----5-----------|
-----8-----8-----0--------|--0--------0-----7-----7--|
--------9-----------7-----|-----6--------------7-----|
--------------------------|--------------0-----------|
--------------------------|--------------------------|
--0-----------------5-----|-----5--------------------|


  E  E  E  E  E  E  E  E     E  S  S  E  E  E  E  E  E   
--0--------0--------0-----|--3--2h-3p-2--------0--------|
-----0--------0--------0--|--------------3--------------|
--------5--------4--------|-----------------4--------3--|
--------------------------|-----------------------------|
--------------------------|-----------------------------|
--------3--------3--------|--0--------------------2-----|


  E  E  E  E  E  E  E  E     E  E  E  E  E  E  E  E   
-----2-----------0--------|--0--------0-----------0--|
--2-----2-----3-----3--5--|-----5--3-----3-----3-----|
-----------3--------------|-----------------0--------|
--------------------------|--------------------------|
--------------2--------4--|--------2-----------------|
--------------------------|--------------------------|


  Q    E  E  S S E  E  E     E  E  E  E  Q    E  E   
--3----3--3--2-3-2--------|-----2-------------------|
--------------------------|--2-----2-----7----7--7--|
-----------------------3--|-----------3--7----7--7--|
--------------------------|-------------------------|
--------------------------|-------------------------|
--0-----------------2-----|--------------7----------|


  E   E  E  E  E  E  E  E     Q    E  E  E   E  E  E   
------------------3--------|--------------------------|
--5p--3--------3-----3-----|--5----5--5--3p--2--------|
--6---4-----4-----------4--|--4----4--4--4---3-----3--|
---------------------------|--------------------------|
---------------------------|--------------------------|
---------3-----------------|--0-----------------2-----|


  E  E  E  E  E  E  E  E     E  E  E  E  E  E  E  E   
-----2-----------0--------|--0--------0-----------0--|
--2-----2-----3-----3--5--|-----5--7-----7-----7-----|
-----------3--------------|-----------------0--------|
--------------------------|--------------------------|
--------------2--------4--|--------5-----------------|
--------------------------|--------------------------|


  Q    E  E  S S E  E  E     E  E  E  E  Q    E  E   
--3----3--3--2-3-2--------|-----2-------------------|
--------------------------|--2-----2-----7----7--7--|
-----------------------3--|-----------3--7----7--7--|
--------------------------|-------------------------|
--------------------------|-------------------------|
--0-----------------2-----|--------------7----------|


  E   E  E  E  E  E  E  E     Q    E  E  E   E  E  E   
------------------3--------|--------------------------|
--5p--3--------3-----3-----|--5----5--5--3p--2--------|
--6---4-----4-----------4--|--4----4--4--4---3-----3--|
---------------------------|--------------------------|
---------------------------|--------------------------|
---------3-----------------|--0-----------------2-----|


  E  E  E  E  E  E  E  E     E  E  E  E  E  E  E  E   
-----2-----------0--------|--0--------0-----------0--|
--2-----2-----3-----3--5--|-----5--3-----3-----3-----|
-----------3--------------|-----------------0--------|
--------------------------|--------------------------|
--------------2--------4--|--------2-----------------|
--------------------------|--------------------------|


                                                              ^               
  E  E  E  E  E  E  E  E     E  E  E  E  E  E  E  E     E  E  H        Q      
-----0--------0--------0--|-----------0-----0--------|--0-----7-------------||
--3-----3--5-----5--3-----|--3-----3-----3-----3--5--|-----5--7-------------||
--------------------------|-----0--------------------|--------7-------------||
--------------------------|--------------------------|--------9-------------||
--2--------4--------2-----|--------------2--------4--|--------9-------------||
--------------------------|--------------------------|--------7-------------||





Текст, аккорды и табулатура для песни "Осень-Август", исполняет "Дидюля Валерий".
Используемые в песне аккорды можно найти в разделе Как брать аккорды. Аккорды для шестиструнной гитары. Другие песни можно найти на нашем сайте, воспользовавшись алфавитным указателем вверху страницы.


 
Ошибка в тексте? Выделите ошибку и нажмите Ctrl+Enter