***********
1|-4-5-7----10-10-10-10-10-8-7-8-7h8h7----7---------------------
2|-5-----------------------------------10---10-9----------------
3|-4------------------------------------------------------------
4---------------------------------------------------
5---------------------------------------------------
6|-0-----0------------------------------------0-----------------


1|-1-0-----0-------------0----------0----------0----0-----------
2|-----3-1---0-------------0----------0----------0--0-----------
3--1-------2----------1----------2------1-----------
4----2----3----------2----------3-------2-----------
5--------2----------2----------3--------2-----------
6---------------------------------------0-----------


1|-12b4h5h4h0-0-----------------------1-4-1-0--0----------------
2---0---------------0-1-4---------------------------
3-----2-1h2h1h0-1-2---------------------------------
4---------------------------------------------------
5---------------------------------------------------
6----------------------------------0----------------


E(1)-F9(1)-E(1)-F9(1)
(Am(3)-G(3)-F(3)-E(3)-F9(3)- E(3)-F9(3)-Am(1))2р
              
                    
                            2p
1|-12b4h5h4h0-0---------------------------0-1-4-1-0-----------|
2---0---------------0-1-4-1-0-----------0-4-5-4-5-|
3-----2-1h2h1h0-1-2-------------------------------|
4-------------------------------------------------|
5-------------------------------------------------|
6-------------------------------------------------|
   
                        




Текст, аккорды и табулатура для песни "Фламенко", исполняет "Дидюля Валерий".
Используемые в песне аккорды можно найти в разделе Как брать аккорды. Аккорды для шестиструнной гитары. Другие песни можно найти на нашем сайте, воспользовавшись алфавитным указателем вверху страницы.


 
Ошибка в тексте? Выделите ошибку и нажмите Ctrl+Enter