Интро из клипа*

           Gm                                    F 


3------------------------1--------------------------|--
|---------3---3------------3-4-5-4-3-|---------1---1----------1-3-4-3-1-----|--
|-------3-------3--------------------|-------2-------2----------------------|--
|-----5-----------5------------------|-----3-----------3--------------------|--
|---5---------------5----------------|---3---------------3------------------|--
|-3-------------------3-3------------|-1-------------------1----------------|--
                                                                              
                                           2 раза
------------------------------|  ---------------------
-----4------4-----------------|  |---3--4----3--1---3-4-3---------
---3---3--3-------------------|  |-0-------0------0---------------
-1-------1--------------------|  ---------------------
-----------------0h1-1h3-1-0--|  ---------------------
-----------------------------3|  ---------------------
                                                             
           2 раза 3 такта                                  2 раза 3 такта
-------------------------------|----------
-3-3---3-4-6-4-3-1-|-1-3-4-3-1-------------|----------
-------------------3-|-2h3-2---------------|----------
---------------------|-------3-35---------|----------
-----------------------|-5-5---5-6-8-6-5-3-|----------
-------------------------------|----------
                                                                              
                                   Gm
------------------3|-5-6-8-6-5-5|--------
-----------------|----------3---|--------
-----------------|--------3-----|--------
-----------------|------5-------|--------
-3-5-6-5-3-1-|-0h1-13-1-0---|----5---------|--------
---------------3-|--3-----------|--------
                                                                              
                 2 раза               Так сыграть в конце
-------------------|  ---|
-3-3-3-3-|---3-4---3--1---3-4-3|  ---|
---------|-0-----0------0------|  ---|
-------------------|  ---|
-------------------|  |-0h1-0------|-1-0----1-0--|
-------------------|  |-------1-13|-----3------3|
	
	
	        
Комментарий автора: *После 3 такта обыгрываем аккорды Gm-F-Cm постукивая по деке гитары то большим пальцем(над 6 струной), то остальными 4 под 1 струной.

Текст, аккорды и табулатура для песни "Аседора", исполняет "Дидюля Валерий".
Используемые в песне аккорды можно найти в разделе Как брать аккорды. Аккорды для шестиструнной гитары. Другие песни можно найти на нашем сайте, воспользовавшись алфавитным указателем вверху страницы.


 
Ошибка в тексте? Выделите ошибку и нажмите Ctrl+Enter