Bruce Dickinson - Tears Of The Dragon (solos)
Tabbed By: imthebeststd
EMail: [email protected]

Standard tunings.

If you noticed on my other tabs, sumtimes i didnt say what tunings to use
just e-mail me if your having trouble with that and i'll let you know. Sorry.

Listen to see when the solos come in.


                                                                   
--------------------|-----------------------|---------------------|
--------------------|-----------------------|---------------------|
--------------------|-----------------------|---------------------|
--------------------|--10~-----------10/-x--|---------------9-----|
------------7----7--|-----------------------|------------7-----7--|
--------------------|-----------------------|---------------------|


                                                                               
----------------------|---------------------|------|--------------------------|
----------------------|---------------------|------|-----------------8---10---|
----------------------|---------------------|------|-----------7--9-----------|
--7~---------7h9---9--|--9------------------|------|----7--10-----------------|
----------------------|-------7--7~---------|------|--------------------------|
----------------------|---------------------|------|--------------------------|


                                                                           
----------------------------|----------------------|----------------------|
--8--------8----------------|----------------------|----------------------|
------10------10---9--10/-x-|--7r----5------5------|--7r----5------5------|
----------------------------|----------7~----------|----------7~----------|
----------------------------|----------------------|----------------------|
----------------------------|----------------------|----------------------|


                                                           
--------------------------------|-------------------------|
--5----6----8----6----5----6----|--5---------5~-----------|
--------------------------------|-------7-----------------|
--------------------------------|-------------------------|
--------------------------------|-------------------------|
--------------------------------|-------------------------|


                                                                  
----------------------|----------------------|-------------------|
----------------------|----------------------|------8b-----------|
--7r----5------5------|--7r----5------5------|-------------------|
----------7~----------|----------7~----------|-------------------|
----------------------|----------------------|-------------------|
----------------------|----------------------|-------------------|


                                                                              
--------------------------------------|--------------------------------------|
-----5--8--5-----5--8--5-----5--8--5--|-----5--8--5--------------------------|
--7b----------7b----------7b----------|--7b----------7b-5-----5--------------|
--------------------------------------|--------------------7-----7--5-----5--|
--------------------------------------|--------------------------------7-----|
--------------------------------------|--------------------------------------|


                                                               
-----------------------------|--------------------------------|
-----------------------------|--------------------------------|
--------------------5~-------|--------------------------------|
--------7-----7--5-----------|--------------------------------|
--7--5-----5-----------------|------------5-------------------|
-----------------------------|--5----8---------8----7----8----|


                                                                  
--------------------------------|--------------------------------|
--------------------------------|--------------------------------|
--------------------------------|------------5--------------5----|
----------------------5---------|--5----7b-------7~------7-------|
--5----7----5----7---------7----|--------------------------------|
--------------------------------|--------------------------------|


                                                            
-----------------------------|--------------5--------5-----|
---------8-------------------|--8b-------8b----5--8b----5--|
--7b----------7~-------------|-----------------------------|
-----------------------------|-----------------------------|
-----------------------------|-----------------------------|
-----------------------------|-----------------------------|


                                                                             
-----5----------8~----------|------------------------|----------------------|
--8b----5--8b------8b-------|--10----12----12b-------|----------12----10----|
----------------------------|------------------------|----------------------|
----------------------------|------------------------|----------------------|
----------------------------|------------------------|----------------------|
----------------------------|------------------------|----------------------|


                                                                      
------------------------------|--------------------------------------|
--12~-------10----12----13----|--12----13/---15----13----13----15----|
------------------------------|--------------------------------------|
------------------------------|--------------------------------------|
------------------------------|--------------------------------------|
------------------------------|--------------------------------------|


                                                    
--------15--------15--------|--15------------------|
--15b-------15b-------15b---|------15b-------------|
----------------------------|----------------------|
----------------------------|----------------------|
----------------------------|----------------------|
----------------------------|----------------------|


                                                                                
-------------------17-------|--20h17-17-17-20h17-17-17-20h17-17-17-17-17-17-17-|
--20b-----------20----20-17-|--------------------------------------------------|
----------------------------|--------------------------------------------------|
----------------------------|--------------------------------------------------|
----------------------------|--------------------------------------------------|
----------------------------|--------------------------------------------------|


                                                                      
--20b-------20b---20b---20b---|--20----19----20----19----17----19~---|
------------------------------|--------------------------------------|
------------------------------|--------------------------------------|
------------------------------|--------------------------------------|
------------------------------|--------------------------------------|
------------------------------|--------------------------------------|


                                                             
-----------------5---|--------------------------------------|
-------------------8-|-----5--------------------------------|
------------7b-------|--7-----7--5-----5--------------------|
---------------------|--------------7-----7-----7--5--7--5--|
---------------------|-----------------------5--------------|
---------------------|--------------------------------------|


                                                                     
--------------------------------------|-----------------------------|
--------------------------------------|-----------------------------|
--------------------------------------|-----7-----7--5-----7b-------|
--7--------7-----------------5-----7--|--5-----5--------5-----------|
-----5--7-----5--------5--7-----7-----|-----------------------------|
-----------------8--5-----------------|-----------------------------|


                                                     
-----5--7--8--7--8--10--8--10--|--10b---------------|
--5----------------------------|--------------------|
-------------------------------|--------------------|
-------------------------------|--------------------|
-------------------------------|--------------------|
-------------------------------|--------------------|


                                             
-----------10-------10-12----10-12-13-12~---|
--10-12-13----12-13-------13----------------|
--------------------------------------------|
--------------------------------------------|
--------------------------------------------|
--------------------------------------------|


                                             
-----------12-------12-13----12-13-15-13~---|
--12-13-15----13-15-------15----------------|
--------------------------------------------|
--------------------------------------------|
--------------------------------------------|
--------------------------------------------|


                                                                              
--12----13----15----13----15----17----|--15----17----19----17----19----19b---|
--------------------------------------|--------------------------------------|
--------------------------------------|--------------------------------------|
--------------------------------------|--------------------------------------|
--------------------------------------|--------------------------------------|
--------------------------------------|--------------------------------------|


                                                                   
--19b---------------|--20b---------------|--22b-------22b---22b---|
--------------------|--------------------|------------------------|
--------------------|--------------------|------------------------|
--------------------|--------------------|------------------------|
--------------------|--------------------|------------------------|
--------------------|--------------------|------------------------|


                                                                           
--22b---22r---20----21~---|------------------|----------------------------|
--------------------------|------------------|-----------13-15-15b----15b-|
--------------------------|------------------|--------14------------------|
--------------------------|------------------|----------------------------|
--------------------------|------------------|----------------------------|
--------------------------|------------------|----------------------------|


                                                             
------------------------15-17-|--------15/10----------------|
--15r13~----13/---------------|--x-17--------------------13-|
--------14~-------------------|-----------------------14----|
------------------------------|-----------------------------|
------------------------------|-----------------------------|
------------------------------|-----------------------------|


                                                        
---------------------------|-----------------15--------|
--15-15r13-----13----------|------------15b-----15r----|
-----------14--------------|----------x----------------|
---------------------------|--------x------------------|
---------------------------|---------------------------|
---------------------------|---------------------------|


                                                                              
----------------------------------------|----------5-----5-----5-----5-------|
-----13----13--15r-13--15r-13-------13/-|------------8-----8-----8-----8-----|
--14----14--------------------14-14-----|--------7b----7-----7-----7-----7b7-|
----------------------------------------|------------------------------------|
----------------------------------------|------------------------------------|
----------------------------------------|------------------------------------|


                                                                            
-------------------|------|------|------|------|------|------|------|------|
-------------------|------|------|------|------|------|------|------|------|
-------------------|------|------|------|------|------|------|------|------|
--5~---------------|------|------|------|------|------|------|------|------|
-------------------|------|------|------|------|------|------|------|------|
-------------------|------|------|------|------|------|------|------|------|


                                                                                
------|------|------|------|------|------|------|----12-14-15~-----12-14-15~---|
------|------|------|------|------|------|------|------------------------------|
------|------|------|------|------|------|------|------------------------------|
------|------|------|------|------|------|------|------------------------------|
------|------|------|------|------|------|------|------------------------------|
------|------|------|------|------|------|------|------------------------------|


                                                        
--15b-----15--14~-------|----12-14-15~-----12-14-15~---|
------------------------|------------------------------|
------------------------|------------------------------|
------------------------|------------------------------|
------------------------|------------------------------|
------------------------|------------------------------|


                                                          
--17b---17--15--17~-------|----12-14-15~-----12-14-15~---|
--------------------------|------------------------------|
--------------------------|------------------------------|
--------------------------|------------------------------|
--------------------------|------------------------------|
--------------------------|------------------------------|


                                                        
--15b-----15--14~-----14--|--17b---17--15--17--15~-----|
--------------------------|----------------------------|
--------------------------|----------------------------|
--------------------------|----------------------------|
--------------------------|----------------------------|
--------------------------|----------------------------|


                                                        
--15--15~---17--17~-------|------|------|------|------||
--------------------------|------|------|------|------||
--------------------------|------|------|------|------||
--------------------------|------|------|------|------||
--------------------------|------|------|------|------||
--------------------------|------|------|------|------||


Текст, аккорды и табулатура для песни "Tears Of The Dragon", исполняет "Dickinson Bruce".
Используемые в песне аккорды можно найти в разделе Как брать аккорды. Аккорды для шестиструнной гитары. Другие песни можно найти на нашем сайте, воспользовавшись алфавитным указателем вверху страницы.


 
Ошибка в тексте? Выделите ошибку и нажмите Ctrl+Enter