Dexter Freebish - Leaving Town
Tabbed By: Rudy
EMail: [email protected]

Tuning:Eadgbe

http://www.geocities.com/creed989

I have found 2 versions of this song. One is in chords notation the other
in number notation, I guess. Try them both. Its a great song!!


Main Lead Riff (clean):
e--5-5-5-5--6-6-6-6--5-5-5-5--------5-----
b---6-6-6-6--6-6-6-6--6-6-6-6--86868-6----
g-----------------------------------------
d-----------------------------------------
a-----------------------------------------
e-----------------------------------------


Main Rythym Riff (distortion):
e-----------------------------------------
b-----------------------------------------
g-----------33333333-77777777-55555555----
d--33333333-33333333-77777777-55555555----
a--33333333-11111111-55555555-33333333----
e--11111111-------------------------------


Prechorus Lead (clean):
Occasionally you hear this...
e---5/75------------------
b--------------------------
g--------------------------
d--------------------------
a--------------------------
e--------------------------


Prechorus Rythym (distortion):
e-------------------------------------------------
b-------------------------------------------------
g-------------3-33-33---7-77-77---5-55-55---------
d---3-33-33---3-33-33---7-77-77---5-55-55---------
a---3-33-33---1-11-11---5-55-55---3-33-33---------
e---1-11-11---------------------------------------


Chorus Rythym (distortion) and Lead (clean):
e------------------------------------
b------------------------------------
g------333-777-555-33333333-55555555-
d--333-333-777-555-33333333-55555555-
a--333-111-555-333-11111111-33333333-
e--111-------------------------------


Bridge Rythym (distortion) and Lead (clean):
e-----------------------------------------------------------------------------
b-----------------------------------------------------------------------------
g-77777777-55555555-33333333-55555555-77777777-99999999-33333333-55555555-----
d-77777777-55555555-33333333-55555555-77777777-99999999-33333333-55555555-----
a-55555555-33333333-11111111-33333333-55555555-77777777-11111111-33333333-----
e-----------------------------------------------------------------------------


And at the very end he does this right after the last chorus wih just the rythym:
e--------------------------
b--------------------------
g-33333333-5555555-5-------
d-33333333-5555555-5-------
a-11111111-3333333-3-------
e--------------------------


============


Version 2

Chords :

E   A5  C#5  B5
-0- -X-  -X-  -X-  Just mute these chords during the verse and
-0- -X-  -X-  -X-  play them like open chords during the chorus
-1- -2-  -6-  -4-  (let the bottom strings ring out)
-2- -2-  -6-  -4-
-2- -0-  -4-  -2-
-0- -X-  -X-  -X-

Intro:
e-------------------------------------------------------------
b--11----x4---12-----x4---11-----x4--9----9-----9-11--9-------
g----11----------11----------11--------11---11-----------11---
d-------------------------------------------------------------
a-------------------------------------------------------------
e-------------------------------------------------------------


Verse :

E                        A5                  C#5
Oh your reputation's so golden You're never lonely and you're
       B5
never home.
E                                 A5
I know you've been talking about leaving You've lost all your
C#5              B5
feeling for this town.
E                                 A5
Paint your nails and put on your lipstick You don't want to
C#5             B5
miss your ticket out.
E                            A5                      C#5
Just because you graduate from school so high in the gene pool,
               B5
that's your point of view.
                  E      A5              C#5       B5
But when you're broken down and no one else is around.

B5                   E            A5           C#5
You'll come running back to this town and I'll be there,
          B5
yeah I'll be there.

Chorus:
           E       A5     C#5          B5
'cause I remember how we drank time together
             E       A5           C#5        B5
and how you used to say that the stars are forever
      E          A5           C#5           B5
and daydreamed about how to make your life better
            A5            C#5
by leaving town, leaving town.

Verse:

Pack your bags, your smokes in your pocket You're wearing my locket
around your neck.
Take a drag and wait for the Greyhound The world is your playground
and you want to win.
But when you're broken down and no one else is around.
You'll come running back to this town and I'll be there,
yeah I'll be there

Chorus:

'cause I remember how we drank time together
and how you used to say that the stars are forever
and daydreamed about how to make your life better
by leaving town, leaving town

  C#5                      B5
Nothing in life will ever come that easy
A5                    B5
Doesn't mean it has to be that hard
C#5             B5               A5       B5
I know you will find out who you are...

but when you're broken down and no one else is around
you'll come running back to this town and I'll be there,
yeah I'll be there

'cause I remember how we drank time together
and how you used to say that the stars are forever
and daydreamed about how to make your life better
by leaving town, leaving town

http://www.geocities.com/creed989


Текст, аккорды и табулатура для песни "Leaving Town", исполняет "Dexter Freebish".
Используемые в песне аккорды можно найти в разделе Как брать аккорды. Аккорды для шестиструнной гитары. Другие песни можно найти на нашем сайте, воспользовавшись алфавитным указателем вверху страницы.


 
Ошибка в тексте? Выделите ошибку и нажмите Ctrl+Enter