----------------------------------------------------------------------------
			     Whip it - DEVO
----------------------------------------------------------------------------

Tabbed by: DoubleAron
Email: [email protected]

Tuning: E-A-D-G-B-E

Intro
e|---------------------------------------------------|
B|---------------------------------------------------| ______
G|---------------------------------------------------|<      
D|---------------------------------------------------|        
A|----------------5--------------5-------------------|         
E|(12)--0-0-5-7--------0-0-5-7---------------------|
Palm mute						Same time in order


other guitar -- some high pitched distortion
e|------------------3--------------------------------|          /
B|--------------------3-0----------------------------|         /
G|---------------------------------------------------|        /
D|---------------------------------------------------|


Текст, аккорды и табулатура для песни "Whip It", исполняет "Devo".
Используемые в песне аккорды можно найти в разделе Как брать аккорды. Аккорды для шестиструнной гитары. Другие песни можно найти на нашем сайте, воспользовавшись алфавитным указателем вверху страницы.


 
Ошибка в тексте? Выделите ошибку и нажмите Ctrl+Enter