band: the decendents
song: theme 
tab by: zander right

//= let it ring
/= slide 
 
E:----------------------------------------
B:-10-9-7-----------------10-9-8----------
G:--------9-8-11-9----9----------9-8-11-9-
D:-----------------11---------------------
A:----------------------------------------
E:----------------------------------------

E:--------------------------------------------------------------
B:-10-9-7------------------9-12-9--------------10-9-------------
G:--------9-8-11-9-----------------11-9--9-11-------11-9-8------
D:--------------------11-9---------------------------------11-9-
A:--------------------------------------------------------------
E:--------------------------------------------------------------

E:--------------------------------
B:----------------10-9------------
G:-----8-8-9-11-------11-9-8------
D:-9-11----------------------11-9-
A:--------------------------------
E:-------------------------------- X 3

E:-------------------------------------------------------
B:-------------------------------------------------------
G:---------9-9-9-9--11-11-11-11--6-6-6-6---9-9-9-9-------
D:-9-9-9-9-9-9-9-9--9---9--9-9---6-6-6-6---9-9-9-9-------
A:-------------------------------4-4-4-4---7-7-7-7-------
E:-------------------------------------------------------

E:------------------------
B:-------------5----------
G:---4-5-7-6-5---6--------	
D:-5----------------------
A:------------------------
E:------------------------ X 3

E:--------------
B:--7---10------
G:----7-----9---
D:--------------
A:--------------
E:--------------
 LET IT RING 



E:-------------------------------------------------------------------
B:-10-9-7------------------------------------------------------------
G:----------9-8-8-8-8-8-8-8-8--9-8-6-4//-----------------------------
D:-------------------------------------------------------------------
A:-------------------------------------------------------------------
E:------------------------------------------------------------------- 

E:--------------------------------
B:-----777-555-9999999-9-7-6------
G:-----777-555-9999999--------9---	
D:-----555-333-7777777------------
A:--------------------------------
E:--------------------------------

ENDING 
E:----------------------------------------------------------
B:----------------------------------------7-9-10-12-10//----
G:---4-6-7-9/4--4-6-7-9/4--4-6-7-9/4------------------------	
D:----------------------------------------------------------
A:----------------------------------------------------------
E:----------------------------------------------------------

if you think its wrong your an idiot!


Текст, аккорды и табулатура для песни "Theme", исполняет "Descendents".
Используемые в песне аккорды можно найти в разделе Как брать аккорды. Аккорды для шестиструнной гитары. Другие песни можно найти на нашем сайте, воспользовавшись алфавитным указателем вверху страницы.


Слушать онлайн Coffee Mug


DescendentsCoffee Mug на Яндекс.Музыке


 
Ошибка в тексте? Выделите ошибку и нажмите Ctrl+Enter