Song structure:

Intro
Verse
Pre-chorus
Chorus
Verse
Pre-chorus
Chorus
Solo (Play intro)
Bridge
Chorus
Ending

Intro:

E|------------------------------------------|
B|------------------------------------------|
G|------------------------------------------|
D|------------------------------------------|
A|-5--77777777-55555555-77777777-33333333---|
E|-3--55555555-33333333-55555555-11111111---|

E|------------------------------------------|
B|------------------------------------------|
G|------------------------------------------|
D|-555555555555-----------------------------|
A|-333333333333-555-777777777777--6-6-------|
E|--------------333-555555555555--4-8-------|

Verse:

E|------------------------------------------|
B|------------------------------------------|
G|------------------------------------------|
D|-55555555-77777777------------------------|
A|-33333333-55555555-333333333333-3-5-------|
E|-------------------111111111111-1-3-------|

Pre-chorus: (Right, right on..)

E|------------------------------------------|
B|------------------------------------------|
G|------------------------------------------|
D|----------5-55-555------------------------|
A|-7-77-777-3-33-333-77777777-5555555555555-|
E|-5-55-555----------55555555-3333333333333-|

Chorus:

E|------------------------------------------|
B|------------------------------------------|
G|------------------------------------------|
D|-55555555-77777777------------------------|
A|-33333333-55555555-3333333333333333-------|
E|-------------------1111111111111111-------|

E|------------------------------------------|
B|------------------------------------------|
G|------------------------------------------|
D|----------5-55-555------------------------|
A|-7-77-777-3-33-333-777777777777-----------|
E|-5-55-555----------555555555555-----------|

(Thank you for...)
E|------------------------------------------|
B|------------------------------------------|
G|------------------------------------------|
D|------------------------------------------|
A|-55555555-33333333-777777777777-6-8-------|
E|-33333333-11111111-555555555555-4-6-------|

Bridge:

E|------------------------------------------|
B|------------------------------------------|
G|------------------------------------------|
D|-5~-------7~------------------------------|
A|-3--------5--------3333-5555-7777---------|
E|-------------------1111-3333-5555---------|

(Let me know I'm not alone.)
E|--------------------------|
B|--------------------------|
G|--------------------------|
D|-55555555-77777777--------|
A|-33333333-55555555--------|
E|--------------------------|

(Make me feel strong, feel like nothing's wrong)
E|------------------------------------------|
B|------------------------------------------|
G|------------------------------------------|
D|------------------------------------------|
A|-555555555555555555555555-6-88------------|
E|-333333333333333333333333-4-66------------|

Ending:

(Thank you for...)
E|------------------------------------------|
B|------------------------------------------|
G|------------------------------------------|
D|-------------------5555555555555555-------|
A|-55555555-33333333-3333333333333333-------|
E|-33333333-11111111------------------------|

E|------------------------------------------|
B|------------------------------------------|
G|------------------------------------------|
D|------------------------------------------|
A|-777777777777-6-88-10---------------------|
E|-555555555555-4-66-8----------------------|


Текст, аккорды и табулатура для песни "Thank You", исполняет "Descendents".
Используемые в песне аккорды можно найти в разделе Как брать аккорды. Аккорды для шестиструнной гитары. Другие песни можно найти на нашем сайте, воспользовавшись алфавитным указателем вверху страницы.


Слушать онлайн Thank You


DescendentsThank You на Яндекс.Музыке


 
Ошибка в тексте? Выделите ошибку и нажмите Ctrl+Enter