Descendents
Cool to be you

Dreams

This song is from the descendents new album 'cool to be you', I hoped to find a tab for
it but there wasn't any. There are hardly any descendents tabs all together, so it turned
out that I tabbed it and it became my first tab ever! I'm 100% sure its correct, apart
from the second solo at the end of the track, but it isn't too important anyway.

Any comments or parts you think i should re-evaluate, contact me at [email protected]'


			INTRO X2
A-----------------|--------------------------------------------|
B-----------------|--------------------------------------------|
G---7-7-7--5-5-5--|--------------------------------------------|
D---7-7-7--5-5-5--|--2--2-0------------------------------------|
A---5-5-5--3-3-5--|--2-----------3-3-3-2-----------------------|
E-----------------|--0-------3-3---------3---------------------|

VERSE x2
E--------------------------------------------------------------|
B--------------------------------------------------------------|
G--9-9-9-9-----------5-5-5-5-----------------------------------|
D--9-9-9-9--5-5-5-5--5-5-5-5-----------------------------------|
A--7-7-7-7--5-5-5-5--3-3-3-3-----------------------------------|
E-----------3-3-3-3--------------------------------------------|

E-----------------------------------------------------------------------------------------|
B-----------------------------------------------------------------------------------------|
G---------------------5-5-5-5-5-5-------------------5-5-5-5-5-5--7-7-7-7-7-7--5-5-5-5-5-5-|
D---2-2-2-2-5-5-5-5---5-5-5-5-5-5--2-2-2-2-5-5-5-5--5-5-5-5-5-5--7-7-7-7-7-7--5-5-5-5-5-5-|
A---2-2-2-2-5-5-5-5---3-3-3-3-3-3--2-2-2-2-5-5-5-5--3-3-3-3-3-3--5-5-5-5-5-5--3-3-3-3-3-3-|
E---0-0-0-0-3-3-3-3----------------0-0-0-0-3-3-3-3----------------------------------------|
    x x x x x x x x		     x x x x x x x x



CHORUS X2
E-------------------------------------------------------------------------------------|
B-------------------------------------------------------------------x-----x-----------|
G------------------------------5-5-5-5-----------------7-7-7-7--5-5-x-5-5-x-5-5-5-5---|
D---5-5-5-5--7-7-7-7--2-2-2-2--5-5-5-5--------5-5-5-5--7-7-7-7--5-5-x-5-5-x-5-5-5-5---|
A---5-5-5-5--7-7-7-7--2-2-2-2--3-3-3-3--------5-5-5-5--5-5-5-5--3-3-x-3-3-x-3-3-3-3---|
E---3-3-3-3--5-5-5-5--0-0-0-0-----------------3-3-3-3---------------------------------|

(INTRO X2)

(VERSE X2)


SOLO
E---------------------------------------------------------------------------|
B---------------------------------------------------------------------------|
G------------------7----------------0-7~--7-9-7-----------------------------|
D---9-9-9-10-9-10---9~----9-10-9-5-------------10p9-9-10~---(pick scrape)---|
A---------------------------------------------------------------------------|
E---------------------------------------------------------------------------|


(CHORUS X1)


BEFORE BRIDGE
E-------------------------|
B-------------------------|
G-------------------------|
D--2~------------2~-------|
A--2~------------2~-------|
E--0~------------0~-------|

BRIDGE
E------------------------------------------------------------------------|
B------------------------------------------------------------------------|
G-------------------5-5-5-5-5-5-5-5-------------------5-5-5-5-5-5-5-5----|
D--2-2-2-2-5-5-5-5--5-5-5-5-5-5-5-5--2-2-2-2-5-5-5-5--5-5-5-5-5-5-5-5----|
A--2-2-2-2-5-5-5-5--3-3-3-3-3-3-3-3--2-2-2-2-5-5-5-5--3-3-3-3-3-3-3-3----|
E--0-0-0-0-3-3-3-3-------------------0-0-0-0-3-3-3-3---------------------|
   x x x x x x x x  x x x x x x x x  x x x x x x x x  x x x x x x x x 

E------------------------------------------------------------------------|
B------------------------------------------------------------------------|
G-------------------5-5-5-5-5-5-5-5--7-7-7-7-7-7-7-7--5-5-5-5-5-5-5-5----|
D--2-2-2-2-5-5-5-5--5-5-5-5-5-5-5-5--7-7-7-7-7-7-7-7--5-5-5-5-5-5-5-5----|
A--2-2-2-2-5-5-5-5--3-3-3-3-3-3-3-3--5-5-5-5-5-5-5-5--3-3-3-3-3-3-3-3----|
E--0-0-0-0-3-3-3-3-------------------------------------------------------|
   x x x x x x x x  x x x x

OUTRO X3
E----------------------------------------------------------------------------------------------|
B----------------------------------------------------------------------------------------------|
G--------------------5-5-5-5-5-5-------------------5-5-5-5-5-5-------------------5-5-5-5-5-5---|
D---2-2-2-2-2-2-2-2--5-5-5-5-5-5--2-2-2-2-2-2-2-2--5-5-5-5-5-5--2-2-2-2-2-2-2-2--5-5-5-5-5-5---|
A---2-2-2-2-2-2-2-2--3-3-3-3-3-3--2-2-2-2-2-2-2-2--3-3-3-3-3-3--2-2-2-2-2-2-2-2--3-3-3-3-3-3---|
E---0-0-0-0-0-0-0-0---------------0-0-0-0-0-0-0-0---------------0-0-0-0-0-0-0-0----------------|

E------------------------------------|
B------------------------------------|
G--7-7-7-7-7-7-7-7--5-5-5-5-5-5-5-5--|
D--7-7-7-7-7-7-7-7--5-5-5-5-5-5-5-5--|
A--5-5-5-5-5-5-5-5--3-3-3-3-3-3-3-3--|
E------------------------------------|

SECOND SOLO
E----------------0--------------------12-12-15-14-12h4h5-----| 
B--12b-12b-12p10---------------------------------------------| 
G-----------------12-11-9------------------------------------| 
D-------------------------12-12h14---------------------------| 
A------------------------------------------------------------|
E------------------------------------------------------------|
There are various hammer ons and pull offs here, but its too fast to 
accurately tab. You can improvise the rest if u wish


END WITH   
E---------------------------------|
B---------------------------------|
G--7-7-7-7--5-5-5-5---------------|
D--7-7-7-7--5-5-5-5------2--------|
A--5-5-5-5--3-3-3-3------2--------|
E------------------------0--------|


Tabbed by Nemanja Milosevic


Текст, аккорды и табулатура для песни "Dreams", исполняет "Descendents".
Используемые в песне аккорды можно найти в разделе Как брать аккорды. Аккорды для шестиструнной гитары. Другие песни можно найти на нашем сайте, воспользовавшись алфавитным указателем вверху страницы.


Слушать онлайн Dreams


DescendentsDreams на Яндекс.Музыке


 
Ошибка в тексте? Выделите ошибку и нажмите Ctrl+Enter