#----------------------------------PLEASE NOTE---------------------------------#
#This file is the author's own work and represents their interpretation of the #
#song. You may only use this file for private study, scholarship, or research. #
#------------------------------------------------------------------------------##
From: [email protected] (PG2User)

?Nobody Knows You when You?re Down and Out?
as recorded by Derek and the Dominos
transcribed by Kevin Gardner [email protected]

intro
-------------------|----------------------------------|
------13-13-15fb-v-|-15fb-15fb-15fb--15fb-fr-p-13-----|
--14--------------|------------------------------14v-|
-------------------|----------------------------------|
-------------------|----------------------------------|
-------------------|----------------------------------|

---------------------8-------------------|-----3---|
-11fb-11fb-11------8---11----------------|-35-----|
--------------10fb--------10fb-fr-8hb----|---------|
--------------------------------------10-|-------5-|
-----------------------------------------|---------|
-----------------------------------------|---------|

the verses and chorus both have the same chord progressiondurring these
parts of the song apergiates the following chords:

C E7 A7 A7
Dm A7 Dm Dm
F F#dim C C/B A7
D7 D7 G7 G7

Here are the chord shapes:

-0--|-0--|-0--|-1--|-1--|-1--|-0--|-2--|-1--|
-1--|-3--|-2--|-3--|-1--|-1--|-1--|-1--|-0--|
-0--|-1--|-0--|-2--|-2--|-2--|-0--|-2--|-0--|
-2--|-0--|-2--|-0--|-3--|-4--|-x--|-0--|-0--|
-3--|-2--|-0--|----|----|----|-2--|----|-2--|
----|-0--|----|----|----|----|----|----|-3--|
 C    E7   A7   Dm   F   F#dim C/B  D7   G7

solo part 1
-------------------|-15fb-fr------------------------|
------13-13-15fb-v-|---------15fr-13-h-15-p-13------|
--14--------------|---------------------------14-v-|
-------------------|--------------------------------|
-------------------|--------------------------------|
-------------------|--------------------------------|

------------------------------|-------------------|
------------------------------|-------------------|
----10-12-12fb-12fb-12fb-12fb-|-12fb-12fr-p-10----|
-12---------------------------|----------------12-|
------------------------------|-------------------|
------------------------------|-------------------|

----|---------13----15-13-15fb-|-17-15-15fb-15----------------|
----|------13----13------------|---------------15fb-fr-p-13---|
----|-15fb---------------------|------------------------------|
----|--------------------------|------------------------------|
----|--------------------------|------------------------------|
-x-|--------------------------|------------------------------|
--------------------------------------------------------------|
-------13v-13v--------13v-13v--------13v-13v------------------|
-1214----------1214----------1214--------------------------|
--------------------------------------------------------------|
--------------------------------------------------------------|
--------------------------------------------------------------|

----------------------------------------------------------|
-8----8----8----8----8----11------------------------------|
-10fb-10fb-10fb-10fb-10fb----10fb-fr-8--------------------|
---------------------------------------10-8----------810-|
--------------------------------------------10-8-6--------|
---------------------------------------------------8------|

That?s all for now part 2 of the solo might be posted soon!

  = slide          x  = dead string
fb = full bend      hb = half bend
fr = full release   hr = half release
p  = pull off       h  = hammer on
v  = vibrato


Текст, аккорды и табулатура для песни "Nobody Knows You When", исполняет "Derek And The Dominos".
Используемые в песне аккорды можно найти в разделе Как брать аккорды. Аккорды для шестиструнной гитары. Другие песни можно найти на нашем сайте, воспользовавшись алфавитным указателем вверху страницы.


 
Ошибка в тексте? Выделите ошибку и нажмите Ctrl+Enter