here is the intro      G#min   A#min  Cmin

e-----------------------4--4---6--6---8--8------
b-----------8-----------4--4---6--6---8--8------
g-----7--9-----9--7--9--4--4---6--6---8--8------
d--9--------------------6--6-x-8--8-x-10-10-----
a-----------------------6--6-x-8--8-x-10-10----
e-----------------------4--4-x-6--6-x-8--8------


e------------------------------------------------
b------------8-------------10--8--7--------------
g------7--9-----9--7--9---------------7--9-------
d---9--------------------------------------------
a------------------------------------------------
e------------------------------------------------


e------------------------------------------------
b-------------8-----------12--10--9--------------
g-------7--9-----9--7--9-------------9--11-------
d---9--------------------------------------------
a------------------------------------------------   x?
e------------------------------------------------

~~~~~~~~~~~~~~~~~~~~~~~~~~~~~~~~~~~~~~~~~~~~~~~~~~~
here is the piano part
e------------------------------------------------1---------
b---10--10--12--10--5--6--8-8--6-6--5-5--3-3--1--1--------
g------------------------------------------------1--------
d------------------------------------------------3--------
a---------------------------------------------------------
e---------------------------------------------------------

e------------------------------------------------
b----1--3--5--3--1---1---------------------------
g-1----------------1-----------------------------
d------------------------------------------------
a------------------------------------------------
e------------------------------------------------

it might suck cuz its my second tab, but the notes are 100%  right.  good luck.


Текст, аккорды и табулатура для песни "Layla", исполняет "Derek And The Dominos".
Используемые в песне аккорды можно найти в разделе Как брать аккорды. Аккорды для шестиструнной гитары. Другие песни можно найти на нашем сайте, воспользовавшись алфавитным указателем вверху страницы.


Слушать онлайн Layla


Eric ClaptonLayla на Яндекс.Музыке


 
Ошибка в тексте? Выделите ошибку и нажмите Ctrl+Enter