-----------------------|
-----------------------|
|----------0-----------------------|
---2---0---2-------2---|
|-------2------------------2-------|
|---0------------------------------|




-----------------------------------------|
-----------------------------------------|
2-----------2-----------2------------2---|
|-------2-----------2-----------2------------2-------|
|---0-----------0-----------3------------3-----------|
-----------------------------------------|



D       Am            Em
Can you feel a little love
D       Am            Em
Can you feel a little love
Am          D    
Dream on... Dream on...



Вот это - верные табы!!!


Текст, аккорды и табулатура для песни "Dream On", исполняет "Depeche Mode".
Используемые в песне аккорды можно найти в разделе Как брать аккорды. Аккорды для шестиструнной гитары. Другие песни можно найти на нашем сайте, воспользовавшись алфавитным указателем вверху страницы.


Слушать онлайн Dream On


Depeche ModeDream On на Яндекс.Музыке


 
Ошибка в тексте? Выделите ошибку и нажмите Ctrl+Enter