Вся тема играется на 2х основных аккорда: Em,Am
   Em
1-------------------------------
2-------------------------------
3-----0-------0-----------------
4-------2-0-2---2---------------
5---2---------------------------
6-0-----------------------------
играется несколько раз,а потом:
  Am              Am*
1-------------------------------
2-------------------------------
3------2-----2---------2----2---
4----2-----2---------2----2-----
5--0-----0-----0-0-1----1-------
6-------------------------------

и так вся тема,что запомнил то и написал.
Спосибо Сарапину Александру за помощь в подборе.
Кому нужны все табы на NIRVАNу пишите пришлю любую тему.


Текст, аккорды и табулатура для песни "Dream On", исполняет "Depeche Mode".
Используемые в песне аккорды можно найти в разделе Как брать аккорды. Аккорды для шестиструнной гитары. Другие песни можно найти на нашем сайте, воспользовавшись алфавитным указателем вверху страницы.


Слушать онлайн Dream On


Depeche ModeDream On на Яндекс.Музыке


 
Ошибка в тексте? Выделите ошибку и нажмите Ctrl+Enter